TABULATORS TO ALL MEN PLAY ON TEN

E E Q E E E E E Q E H
E||---------------------------|-----------------------|
B||---------------------------|-----------------------|
G||-------------9--9--9s--12--|---L--9----7--9--------|
D||-------------9--9--9s--12--|---L--9----7--9--------|
A||-------------7--7--7s--10--|---L--7----5--7--------|
E||--0--0--L------------------|-----------------------|


E E Q E E E E E Q E H E E Q E E E E
---------------------------|-----------------------|---------------------------|
---------------------------|-----------------------|---------------------------|
-------------9--9--9s--12--|---L--9----7--9--------|-------------9--9--9s--12--|
-------------9--9--9s--12--|---L--9----7--9--------|-------------9--9--9s--12--|
-------------7--7--7s--10--|---L--7----5--7--------|-------------7--7--7s--10--|
--0--0--L------------------|-----------------------|--0--0--L------------------|


E Q E H E E Q E E E E E Q E H
-----------------------|---------------------------|-----------------------|
-----------------------|---------------------------|-----------------------|
---L--9----7--9--------|-------------9--9--9s--12--|---L--9----7--9--------|
---L--9----7--9--------|-------------9--9--9s--12--|---L--9----7--9--------|
---L--7----5--7--------|-------------7--7--7s--10--|---L--7----5--7--------|
-----------------------|--0--0--L------------------|-----------------------|


E E Q E E E E E Q E H E E Q E E E E
--------------------------|----------------------|--------------------------|
--------------------------|----------------------|--------------------------|
-------------5--5--5s--7--|--L-------------------|-------------5--5--5s--7--|
-------------5--5--5s--7--|--L--7----5--7--------|-------------5--5--5s--7--|
-------------3--3--3s--5--|--L--7----5--7--------|-------------3--3--3s--5--|
--0--0--L-----------------|-----5----3--5--------|--0--0--L-----------------|


E E Q E E E E E Q E H E E Q E E E E
--------------------------|----------------------|--------------------------|
--------------------------|----------------------|--------------------------|
-------------5--5--5s--7--|--L-------------------|-------------5--5--5s--7--|
-------------5--5--5s--7--|--L--7----5--7--------|-------------5--5--5s--7--|
-------------3--3--3s--5--|--L--7----5--7--------|-------------3--3--3s--5--|
--0--0--L-----------------|-----5----3--5--------|--0--0--L-----------------|


W H E E E. S
-------------------|-------------------|-----------------------|
-------------------|-------------------|-----------------------|
-------------------|-------------------|-----------9--7--9---9-|
--2----------------|-------------------|-----------9--7--9---9-|
--2----------------|-------------------|-----------7--5--7---7-|
--0----------------|-------------------|-----------------------|


Q H. H E E E. S
--------------------|---------------|-----------------------|
--------------------|---------------|-----------------------|
--9-----------------|---------------|-----------9--7--9---9-|
--9-----------------|---------------|-----------9--7--9---9-|
--7-----------------|---------------|-----------7--5--7---7-|
--------------------|---------------|-----------------------|


Q H. H E. S Q
--------------------|-----------------------|-------|-------|-------|-------|
--------------------|-----------------------|-------|-------|-------|-------|
--9-----------------|---------------9-9\----|-------|-------|-------|-------|
--9-----------------|---------------9-9\----|-------|-------|-------|-------|
--7-----------------|---------------7-7\----|-------|-------|-------|-------|
--------------------|-----------------------|-------|-------|-------|-------|


H. E E

-------|-------|-------|-------|---------------------|
-------|-------|-------|-------|---------------------|
-------|-------|-------|-------|------------------9--|
-------|-------|-------|-------|------------------9--|
-------|-------|-------|-------|------------------7--|
-------|-------|-------|-------|---------------------|


E E Q E E E E E Q E H E E Q E E E E
---------------------------|-----------------------|---------------------------|
---------------------------|-----------------------|---------------------------|
-------------9--9--9s--12--|---L--9----7--9--------|-------------9--9--9s--12--|
-------------9--9--9s--12--|---L--9----7--9--------|-------------9--9--9s--12--|
-------------7--7--7s--10--|---L--7----5--7--------|-------------7--7--7s--10--|
--0--0--L------------------|-----------------------|--0--0--L------------------|


E Q E H E E Q E E E E E Q E H
-----------------------|---------------------------|-----------------------|
-----------------------|---------------------------|-----------------------|
---L--9----7--9--------|-------------9--9--9s--12--|---L--9----7--9--------|
---L--9----7--9--------|-------------9--9--9s--12--|---L--9----7--9--------|
---L--7----5--7--------|-------------7--7--7s--10--|---L--7----5--7--------|
-----------------------|--0--0--L------------------|-----------------------|


E E Q E E E E E Q E Q. E H H
---------------------------|------------------------|---------------------|
---------------------------|------------------------|---------------------|
-------------9--9--9s--12--|---L--9----7--9------9--|--9\-----------------|
-------------9--9--9s--12--|---L--9----7--9------9--|--9\-----------------|
-------------7--7--7s--10--|---L--7----5--7------7--|--7\-----------------|
--0--0--L------------------|------------------------|---------------------|


H E E E. S Q H.
-------------------|-----------------------|--------------------|
-------------------|-----------------------|--------------------|
-------------------|-----------9--7--9---9-|--9-----------------|
-------------------|-----------9--7--9---9-|--9-----------------|
-------------------|-----------7--5--7---7-|--7-----------------|
-------------------|-----------------------|--------------------|


H E E E. S Q H.
---------------|-----------------------|--------------------|
---------------|-----------------------|--------------------|
---------------|-----------9--7--9---9-|--9-----------------|
---------------|-----------9--7--9---9-|--9-----------------|
---------------|-----------7--5--7---7-|--7-----------------|
---------------|-----------------------|--------------------|


H E. S Q
-----------------------|-------|-------|-------|-------|-------|-------|-------|
-----------------------|-------|-------|-------|-------|-------|-------|-------|
---------------9-9\----|-------|-------|-------|-------|-------|-------|-------|
---------------9-9\----|-------|-------|-------|-------|-------|-------|-------|
---------------7-7\----|-------|-------|-------|-------|-------|-------|-------|
-----------------------|-------|-------|-------|-------|-------|-------|-------|


H. E E E E Q E E E E
-------|---------------------|---------------------------|
-------|---------------------|---------------------------|
-------|------------------9--|-------------9--9--9s--12--|
-------|------------------9--|-------------9--9--9s--12--|
-------|------------------7--|-------------7--7--7s--10--|
-------|---------------------|--0--0--L------------------|


E Q E H E E Q E E E E E Q E H
-----------------------|---------------------------|-----------------------|
-----------------------|---------------------------|-----------------------|
---L--9----7--9--------|-------------9--9--9s--12--|---L--9----7--9--------|
---L--9----7--9--------|-------------9--9--9s--12--|---L--9----7--9--------|
---L--7----5--7--------|-------------7--7--7s--10--|---L--7----5--7--------|
-----------------------|--0--0--L------------------|-----------------------|


E E Q E E E E E Q E H E E Q E E E E
---------------------------|-----------------------|---------------------------|
---------------------------|-----------------------|---------------------------|
-------------9--9--9s--12--|---L--9----7--9--------|-------------9--9--9s--12--|
-------------9--9--9s--12--|---L--9----7--9--------|-------------9--9--9s--12--|
-------------7--7--7s--10--|---L--7----5--7--------|-------------7--7--7s--10--|
--0--0--L------------------|-----------------------|--0--0--L------------------|


E Q E Q. E H H W
------------------------|---------------------|-------------------|
------------------------|---------------------|-------------------|
---L--9----7--9------9--|--9\-----------------|-------------------|
---L--9----7--9------9--|--9\-----------------|-------------------|
---L--7----5--7------7--|--7\-----------------|-------------------|
------------------------|---------------------|-------------------|


W W W
-------------------|-------------------|-------------------|
-------------------|-------------------|-------------------|
-------------------|-------------------|-------------------|
-------------------|-------------------|-------------------|
-------------------|-------------------|-------------------|
-------------------|-------------------|-------------------|


I Have No Idea
H H H H H H
--------------------------|--------------------|--------------------|
--------------------------|--------------------|--------------------|
--------------------------|--------------------|--------------------|
--------------------------|--------------------|--------------------|
--------------------------|--------------------|--------------------|
--------------------------|--------------------|--------------------|


H H H H H H
--------------------|--------------------|--------------------|
--------------------|--------------------|--------------------|
--------------------|--------------------|--------------------|
--------------------|--------------------|--------------------|
--------------------|--------------------|--------------------|
--------------------|--------------------|--------------------|


H H H H
--------------------|--------------------||
--------------------|--------------------||
--------------------|--------------------||
--------------------|--------------------||
--------------------|--------------------||
--------------------|--------------------||




Duration Legend
---------------
W - whole
H - half
Q - quarter
E - 8th
S - 16th
T - 32nd
X - 64th
. - note dotted
|-n-| - n-tuplets


Tablature Legend
----------------
L - tied note
x - dead note
g - grace note
(n) - ghost note
> - accentuded note
NH - natural harmonic
AH - artificial harmonic
TH - tapped harmonic
SH - semi harmonic
PH - pitch harmonic
h - hammer on
p - pull off
b - bend
br - bendRelease
pb - preBend
pbr - preBendRelease
brb - bendReleaseBend
\n/ - tremolo bar dip
\n - tremolo bar dive
-/n - tremolo bar Release up
/n\ - tremolo bar inverted dip
/n - tremolo bar return
-\n - tremolo bar Release down
S - shift slide
s - legato slide
/ - slide into from below or out of upwards
\ - slide into from above or out of downwards
~ - vibrato
W - wide vibrato
tr - trill
TP - tremolo picking
T - tapping
S - slap
P - pop
< - fade in
^ - brush up
v - brush down