TABULATORS TO BLACK WIND, FIRE AND STEEL

Transcribed by HeXa(Heikki.Mustonen@kymp.net)
Thanx to Manoel

Standard Tuning

Comment: No Outro included

|-17-16-------|--------------------------------------------------------------|
|-------17----|-------------------------------P.H----------------------------|
|----------16-|-------------------------------9------------------------------|
|-------------|-----------------------------------------------5---------7----|
|-------------|---7-7-7-7---7-7-7-7---7-7-7-7-------5-7-7-7-7---7-7-7-7---7-7|
|-------------|-0---------0---------0----------------------------------------|

|-------------------|-17(18)-br-17(18)-br-17(18)-br-17(18)-br-17(18)-br-15---|
|---------------P.H-|--------------------------------------------------------|
|---------------9---|--------------------------------------------------------|
|-----9-------------|--------------------------------------------------------|
|-7-7---7-7-7-7-----|--------------------------------------------------------|
|-------------------|--------------------------------------------------------|

|-20(22)-|-20-19-17----------------------------------------------------------|
|--------|----------20-19-17-19-17-15-17-15-13-15-13-12-13-12----12----------|
|--------|----------------------------------------------------14----14-12-14-|
|--------|-------------------------------------------------------------------|
|--------|-------------------------------------------------------------------|
|--------|-------------------------------------------------------------------|
T T T T T T T
|----------------|----------------7p5p3-7p5p3-7p5p3-7p5p3-8p5p3-8p5p3-8p5p3--|
|----------------|-----------------------------------------------------------|
|-12-11-12-11----|-pickscrape-up---------------------------------------------|
|-------------14-|-----------------------------------------------------------|
|----------------|-----------------------------------------------------------|
|----------------|-----------------------------------------------------------|
T T T T T T T
|-8p5p3-7p5p3-7p5p3-7p5p3-7p5p3-7p5p3-7p5p3-|-22p0-22p0-22p0-22p0-20p0-20p0--|
|-------------------------------------------|--------------------------------|
|-------------------------------------------|--------------------------------|
|-------------------------------------------|--------------------------------|
|-------------------------------------------|--------------------------------|
|-------------------------------------------|--------------------------------|

|-20p0-20p0-19p0-20p0-19p0-20p0-19p0-20p0-19-|-20-19-17----------20-19-17----|
|--------------------------------------------|----------20-19-17-------------|
|--------------------------------------------|-------------------------------|
|--------------------------------------------|-------------------------------|
|--------------------------------------------|-------------------------------|
|--------------------------------------------|-------------------------------|

|----------------------------------------------------------------------------|
|-20-19-17-----------------------------------------17-19-20-19-17------------|
|-----------19-17-16----------------------16-17-19----------------19-17-16---|
|--------------------19-17-16----16-17-19------------------------------------|
|-----------------------------19---------------------------------------------|
|----------------------------------------------------------------------------|

|-15-12-15-12----15-12-15-12-15-12----15-12-15-12----15-12-15-12-15-12-------|
|-------------15-------------------15-------------15-------------------15----|
|----------------------------------------------------------------------------|
|----------------------------------------------------------------------------|
|----------------------------------------------------------------------------|
|----------------------------------------------------------------------------|

|-17-14-17-14-17-14----17-14-17-14---17-14-17-14----17-14-17-14-17-14--------|
|-------------------15-------------15------------15-------------------15-----|
|----------------------------------------------------------------------------|
|----------------------------------------------------------------------------|
|----------------------------------------------------------------------------|
|----------------------------------------------------------------------------|

|-22---(bend-slowly)---22(24)-22(24)-22(24)-22(24)-22(24)-22(24)-22(24)-22(24)
|----------------------------------------------------------------------------|
|----------------------------------------------------------------------------|
|----------------------------------------------------------------------------|
|----------------------------------------------------------------------------|
|----------------------------------------------------------------------------|