TABULATORS TO BLOOD OF MY ENEMIES

Transcribed by HeXa(Heikki.Mustonen@kymp.net)
Thanx to Manoel

Standard Tuning

Comment: Outro included

|--------12------------------------------------------------------------------|
|-15(17)----15-12----12-------------------15-12-15-12-------------------P.H--|
|-----------------14----14-12------14(16)-------------14-12-------------14---|
|-----------------------------14----------------------------14-12-14-12------|
|----------------------------------------------------------------------------|
|----------------------------------------------------------------------------|

|-----------------------------------------------------15-12h15p12h15-12-15-12|
|----------------------------------------------15(17)------------------------|
|-12-14-12-----------12-14-12-------14-12------------------------------------|
|----------14-12-14-----------14-12-------14---------------------------------|
|----------------------------------------------------------------------------|
|----------------------------------------------------------------------------|

|----------------------------------------------------------------------------|
|-15-12--------------------15(17)-br-12-15-12----12--------------------------|
|-------14--14(16)-br-12----------------------14----14-12-11-----------------|
|----------------------------------------------------------------------------|
|----------------------------------------------------------------------------|
|----------------------------------------------------------------------------|

|-----------------------------0-2-3-5-7-|-------------------------15(17)-12--|
|-------------------------1-3-----------|-12h15p12h15p12h15p12h15------------|
|-------------------0-2-4---------------|------------------------------------|
|-------------0-2-4---------------------|------------------------------------|
|-------0-2-3---------------------------|------------------------------------|
|-0-2-3---------------------------------|------------------------------------|

|-15-12----12----------------------------------------------------------------|
|-------15----15-12-15-12----12----15-12-15-12----12-------------------------|
|-------------------------14----14-------------14----14-12----12-14(16)------|
|----------------------------------------------------------14----------------|
|----------------------------------------------------------------------------|
|----------------------------------------------------------------------------|

|-----------------------------22(24)-22(24)-22(24)---------------------------|
|-22(24)-22(24)-22(24)-22(24)------------------------12-13-12-13----13-12----|
|----------------------------------------------------------------14-------14-|
|----------------------------------------------------------------------------|
|----------------------------------------------------------------------------|
|----------------------------------------------------------------------------|

|--------------------------------------------------------------------12------|
|-12-------------------------------------15--------------------------N.H-----|
|----14-12-11-14-12-11----11-12-14-14(16)---14-12----12-14-12-14(16)---------|
|----------------------14-------------------------14-------------------------|
|----------------------------------------------------------------------------|
|----------------------------------------------------------------------------|


Outro
|----------------8-----------------------------------------------------------|
|--------------8-------------------------------------------------------------|
|------------9---------------------------------------------------------------|
|---------10-----------------------------------------------------------------|
|----7-10--------------------------------------------------------------------|
|--8-------------------------------------------------------------------------|