TABULATORS TO BROTHERS OF METAL

Transcribed by Dave "Thornus"
THANX TO MANOEL

sorry no solo !

Intro
|-0---------------------------------||
|--0--------------------------------||
|---0-------------------------------||
|----9-----9----------9--9-9-9\-----||
|-----7----7----------7--7-7-7\-----||
|-----------------------------------||

Riff 1
|-----------------------------------------------------||
|-----------------------------------------------------||
|-----------------------------------------------------||
|-----------------------------------------------------||
|-------------333333333333------------000000222222----||
|-000000000000------------333333333333----------------||
P.M...............................................

Riff 2 Fill 1
|------------------------|| |----------------------||
|------------------------|| |----------------------||
|------------------------|| |----------------------||
|------------------------|| |----------------------||
|-333333555555777777-----|| |-555555------2222222--||
|------------------------|| |-------333333---------||
P.M................. P.M..................

Chorus Fill2
|--------------------------------|| |---------------------------||
|--------------------------------|| |---------------------------||
|--------------------------------|| |---------------------------||
|--9-------------5------------7--|| |---------------------------||
|--7-------------3------------5--|| |---------------------------||
|--------------------------------|| |-000000000000000000000000--||
P.M.......................
Riff 3
|-----------------------------------------------------||
|-----------------------------------------------------||
|-----------------------------------------------------||
|-------------5-----------------------2-----4---------||
|-2-----------3-----------5-----------0-----2---------||
|-0-----------------------3---------------------------||

Song structure

Intro
Riff 1 x2
Riff 2 x3
fill 1 x1
chorus x4
fill 2 x1
riff 1 x2
riff 2 x3
fill 1 x1
chorus x4
solo
riff 3 x2
chorus repeat till end