TABULATORS TO BURNING

Here are the Tabs for "Burning"

by: Lukas ("Tyr"/"Xypher") G.
eMail:Lukaskixass@hotmail.com

This song is very easy, because you only have to play
Riff2 the whole time:

h=hammer on

Riff1
e|-----------------------------|
h|-----------------------------|
g|-----------------------------|
d|--9---------9--10---------10-|
a|--7-X-X-X-X-7-- 7-X-X-X-X- 7-|
E|-----------------------------|

Riff2
e|----------------------------------------------------------|
h|----------------------------------------------------------|
g|----------------------------------------------------------|
d|--9---------9---------9-9-10---------10---------10-10-h12-|
a|--7-X-X-X-X-7-X-X-X-X-7-7- 7-X-X-X-X- 7-X-X-X-X- 7- 7-----|
E|----------------------------------------------------------|

If someone has got the solo mail it to me