TABULATORS TO CALL TO ARMS

By Max Hufnagel

Ignore the timing, listen to the song to get it.

Intro:

E ---------------------------------------------------------------------------------------------|
B ---------------------------------------------------------------------------------------------|
G----------------------------------------------------------------------10----------------------|
D--8-------------8------------8--10---12------8-------------8--10----8-------------------------|
A--6----6-6-6---6----6-6-6--6---8---10------6----6-6-6--6---8----------------------------------|
E----------------------------------------------------------------------------------------------|


E ---------------------------------------------------------------------------------------------|
B ---------------------------------------------------------------------------------------------|
G----------------------------------------------10-----------10---12---14-----------------------|
D--8-------------8------------8--10---12-----8----8-8-8---8---10---12--------------------------|
A--6----6-6-6--6----6-6-6--6---8----10---------------------------------------------------------|
E----------------------------------------------------------------------------------------------|


E ---------------------------------------------------------------------------------------------|
B ---------------------------------------------------------------------------------------------|
G----------------------------------------------------------------------------------------------|
D--8----------10-------------------------------------------------------------------------------|
A--6-----6-6--8--------------------------------------------------------------------------------|
E----------------------------------------------------------------------------------------------|

repeat 2x
E ---------------------------------------------------------------------------------------------|
B ---------------------------------------------------------------------------------------------|
G----------------------------------------------------------------------------------------------|
D----------------------------------------------------------------------------------------------|
A--555-----------555------------555---------3--3-----------------------------------------------|
E--333--3-3-3---333--3-3-3---333-3-3-3---1--1--------------------------------------------------|

When they see us……............................... so long did we wait ……..
E ---------------------------------------------------------------------------------------------|
B ---------------------------------------------------------------------------------------------|
G----------------------------------------------------------------------------------------------|
D----------------------------------------------------------------------------------------------|
A--5-5-5-5-5-5-5-5-5-5-5-5-5-5-5-5---333-3-3-3-3-3-3-3-3-3-3-3-3-3-3-3-3-----------------------|
E--3-3-3-3-3-3-3-3-3-3-3-3-3-3-3-3---111-1-1-1-1-1-1-1-1-1-1-1-1-1-1-1-1-----------------------|

Now, we are home
E ---------------------------------------------------------------------------------------------|
B ---------------------------------------------------------------------------------------------|
G----------------------------------------------------------------------------------------------|
D----------------------------------------------------------------------------------------------|
A--555-----------555------------555---------3--3-----------------------------------------------|
E--333--3-3-3---333--3-3-3---333-3-3-3---1--1--------------------------------------------------|


Repeat this whole part.

Now we will fight for the kingdom, fighting with steel
E ---------------------------------------------------------------------------------------------|
B ---------------------------------------------------------------------------------------------|
G----------------------------------------------------------------------------------------------|
D----------------------------------------------------------------------------------------------|
A------3--3------555-----------555-----------555----------5--3---------------------------------|
E------1--1------333--3-3-3---333--3-3-3---333-3-3-3---3--1------------------------------------|

Kill all of them, their blood is our seal
E ---------------------------------------------------------------------------------------------|
B ---------------------------------------------------------------------------------------------|
G----------------------------------------------------------------------------------------------|
D--333--3-3-3---333--3-3-3---333--3-3-3-----3--------------------------------------------------|
A--111--1-1-1---111--1-1-1---111--1-1-1-----1--3-----------------------------------------------|
E-----------------------------------------------------1----------------------------------------|

Fight till the last of the enemy is dead
E ---------------------------------------------------------------------------------------------|
B ---------------------------------------------------------------------------------------------|
G----------------------------------------------------------------------------------------------|
D----------------------------------------------------------------------------------------------|
A--555-----------555------------555---------5--3-----------------------------------------------|
E--333--3-3-3---333--3-3-3---333-3-3-3---3--1--------------------------------------------------|

Ride through their blood that we gladly have shed
E ---------------------------------------------------------------------------------------------|
B ---------------------------------------------------------------------------------------------|
G----------------------------------------------------------------------------------------------|
D--333--3-3-3---333--3-3-3---333--3-3-3-----3--------------------------------------------------|
A--111--1-1-1---111--1-1-1---111--1-1-1-----1--3-----------------------------------------------|
E-----------------------------------------------------1----------------------------------------|


I now issue the call…..................................... To be free once again
E ---------------------------------------------------------------------------------------------|
B ---------------------------------------------------------------------------------------------|
G----------------------------------------------------------------------------------------------|
D----------------------------------------------------------------------------------------------|
A--3--3---5-5-5-5-5-5-5-5-5-5-5-5-5-5----333-3-3-3-3-3-3-3-3-3-3-3-3-3-3-3-3-------|
E--1--1---3-3-3-3-3-3-3-3-3-3-3-3-3-3----111-1-1-1-1-1-1-1-1-1-1-1-1-1-1-1-1-------|

tonight we will win
E ---------------------------------------------------------------------------------------------|
B ---------------------------------------------------------------------------------------------|
G----------------------------------------------------------------------------------------------|
D----------------------------------------------------------------------------------------------|
A--555-----------555------------555---------3--3-----------------------------------------------|
E--333--3-3-3---333--3-3-3---333-3-3-3---1--1--------------------------------------------------|

Repeat this part ( I now issue - tonight we will win)

Chorus:

Fight for the kingdom bound for glory Armed with a heart of steel
E ---------------------------------------------------------------------------------------------|
B ---------------------------------------------------------------------------------------------|
G----------------------------------------------------------------------------------------------|
D--8-------------8------------8--10---12------8-------------8--10--12-------12--10-------------|
A--6----6-6-6---6----6-6-6--6---8---10------6----6-6-6--6---8---10-------10---8----------------|
E----------------------------------------------------------------------------------------------|

I swear by the brothers who stand before me
E ---------------------------------------------------------------------------------------------|
B ---------------------------------------------------------------------------------------------|
G----------------------------------------------------------------------------------------------|
D--8-------------8------------8--10---12-------------------------------------------------------|
A--6----6-6-6---6----6-6-6--6---8---10---------------------------------------------------------|
E----------------------------------------------------------------------------------------------|

To no man shall I kneel
E ---------------------------------------------------------------------------------------------|
B ---------------------------------------------------------------------------------------------|
G--10-----------10---12---14-------------------------------------------------------------------|
D---8----8-8-8--8---10---12--------------------------------------------------------------------|
A----------------------------------------------------------------------------------------------|
E----------------------------------------------------------------------------------------------|

Then blood is upon my steel
E ---------------------------------------------------------------------------------------------|
B ---------------------------------------------------------------------------------------------|
G----------------------------------------------------------------------------------------------|
D--8------------8--10---12-------------12--10--------------------------------------------------|
A--6----6-6-6--6---8---10-------------10---8---------------------------------------------------|
E----------------------------------------------------------------------------------------------|

Well that's it. Here should be the Solo, but … :)

The rest of the Song consits of the known parts, just listen to it and you will come along :) .


Tabbed by Max Hufnagel aka Ballbreaker

Email me corrections: zxkspinx@freenet.de


Death to false Metal!