TABULATORS TO COURAGE

by Hugo_MSD (ee95114@tom.fe.up.pt)
THANX TO MANOEL

-\-/=\-\=/-\=/-\=/-\=/-\=/-\=/-\-/=\-\=/-\=/-\=/-\=/-\=/-\=/-\-/=\-\=/-\=/-\=/-
This is NOT a professional transcription, it is just the way I play the song,
so you may find some errors in it. If you have any correction and/or comment,
feel free to e-mail it.
-\-/=\-\=/-\=/-\=/-\=/-\=/-\=/-\-/=\-\=/-\=/-\=/-\=/-\=/-\=/-\-/=\-\=/-\=/-\=/-

intro:
|------------------------------2---3----------2-------3------2-----5-2-3-----
|-3-------------------------3----3-3----------3-----3-3------3----3----3-light
|--4----4-6-7-----7-------2--------4----------2-----2-4------2---2-----4-strum
|---5----------5-----7--0----------5----------0-------5------0--0------5-----
|----5-----------------------------5------------------5----------------5-----
|-----3----------------------------3------------------3----------------3-----

(G) (D)
"Some want to think hope is lost
(G) (D)
see me stand alone
(G) (D)
I can do what others may want


|-2---2-----------3------2----|
|-3-----5p3-3-2p3-3------3----|
|-3---------------4----4-2----|
|-0---------------5------0----|
|-----------------5-----------|
|-----------------3-----------|
(G) (D)
but then I'll have no home.

verse(clean):
D A Bm F#m
So for now wave goodbye and keep your hands held high
G D Em A
hear this song of courage long into the night
So for now wave goodbye and keep your hands held high
hear this song of courage long into the night

play verse(clean) twice (w/ no lyrics)

verse(dist.):

D5 A5 B5 F#5
So the wind will bear my pride, to all who hope to fly
G5 D5 E5 (E)(F#)(G) A
hear this song of courage, ride into the night


solo: h h h 7
|---------------------------------------------------17br-17--------------------
|-------------------------------------/12--15br-15---------19p17-19--------12--
|----------------7_-9br-9p7-9_-9br9-7--14b--------16---------------------12--7-
|-----------5-7-9------------------------------------------------------12------
|------5-7-9-------------------------------------------------------------------
|-5-6-7-------------------------------------------------------------3~~--------


----------------------------------------------------------------------|
-12-10h12p10----------------------------------------------------------|
------------/11--11-12-13-14-11------------------------12-13-14-14/16-|
-------------------------------14-12-14--------12-14-16---------------|
---------------------------------------12-13-14-----------------------|
----------------------------------------------------------------------|

bridge:

B5 G5 D5 A5
Battles are fought by those with the courage to believe
B5 G5 D5 A5
they are won by those who find the hearts, find the heart to share
B5 G5 D5 A5
this partner feels the soul will point the way to victory
G5 A5
if there's a fight, I'll be there, I'll be there


So for now wave goodbye and keep your hands held high
hear this song of courage long into the night
And the wind will bear my pride, to all who hope to fly
let the wings go high, my friend, here's to the end

So for now wave goodbye, keep your hands held high
hear this song of courage long into the night.


|---------------7-9-10_-9-7---------------------------------------------|
|-----7-8-10-10_-----------10-8-10_-7-8_-8-10-10_-7---7-7------------7_-|
|-7_-7---------------------------------------------7-9-9-9-7-9---7-9(7_)|
|--------------------------------------------------------------7--------|
|-----------------------------------------------------------------------|
|-----------------------------------------------------------------------|