TABULATORS TO DARK AVENGER

Tabbled by: Manoel Manowar (Sao Paulo-Brazil)
E-mail: manoelmanowar@geocities.com

Obs.: The intro is played on the bass, I have just a short idea of how
it is played (G E A...). If you have the solo or any correction, please
send to me by e-mail. Hail to all the brothers of metal all over the
world and at Brazil !!!

Visit my home-page at: "http://www.truemetal.org/manowarkill"

Intro:
Part 0:(two times)
e|-----------------------|----|--------|-----|
b|-----------------------|----|--------|-----|
g|----------------------o|----|-repeat-|-----|
D|-5-5-5-5-5-5-5-5--5---o|----|-part 0-|-----|
A|-3-3-3-3-3-3-3-3----6--|-3>-|--------|-7/--|
E|-----------------------|----|--------|-5/--|

Part I:(four times) Part II:(two times)
He broke the... Bound on the shoreline Left for the..
e|---------------------|------------------------------|------------|
b|---------------------|------------------------------|------------|
g|---------------------|------------------------------|------------|
D|-2-2-2-2-2-2-2--2----|-9-9-9-9-9-12-11-9-7----------|-9-9-9-9-9--|
A|-0-0-0-0-0-0-0----3--|-7-7-7-7-7-10--9-7-5-12-9-9-9-|-7-7-7-7-7--|
E|---------------------|---------------------10-7-7-7-|------------|

...tide
e|------------------| | | | |
b|------------------| | | | |
g|------------------| Repeat | Repeat | Repeat | Repeat |
D|-12-11-9-7--------| Part I | Intro | Part I | Part II |
A|-10--9-7-5--9-9-9-| | | | |
E|------------7-7-7-| | | | |

Narration:
D5
...return to world...
e5
...vindicate the souls of...
A5
...called: Vengeance...
D5
...might and black in color...
e5
...grims and fire...
A5
...clap like thunder !

Part III:(two times) Part IV:(two times)
Burning, Death, Destruction..
e|--------------------------|----------------------------------|
b|--------------------------|----------------------------------|
g|-------------------------o|----------------------------------|
D|-5-------2-2-2---5-4-2---o|-----9-9--9-8-7-5------9-9--9-8-7-|
A|-3-0-0-0-0-0-0---3-2-0-5--|-2-2-7-7--7-6-5-3--2-2-7-7--7-6-5-|
E|-----------------------3--|-0-0---------------0-0------------|
\ -three times-/

Repeat Part III, and then:
Part V:
Hoping to get...
e|-----------------|----------|---------|---------------|
b|-----------------|----------|---------|---------------|
g|-----------------|-Repeat---|-Repeat--|-Repeat the----|
D|-5-5-5-5-5-5-5-5-|-Part III-|-Part IV-|-Parts III, V,-|
A|-3-3-3-3-3-3-3-3-|-one time-|---------|-III and IV----|
E|-----------------|----------|---------|---------------|

Listen to the song and will be very easy to finish it...

DARK AVENGER

He broke the laws of the elders
So they blocked out his eye,
Took his land and fortune,
Left him to die

Bound on the shoreline,
Left for the tide,
Seizes life, blood leaving...
Circling lower, the vultures fly

His bones may be broken
But the spirit can't die
And the Gods see his anguish
And give him a sign

From the floor of the ocean
The ship of the lost souls rise
And they take him where no one sleeps while the undead cry,
Where no one sleeps while the undead cry...

And in the world above
The elders sing,
On his land they live...
Let death bell ring

Narration:
He was met at the gate of Hades
By the Guardian of the Lost Souls,
The Keeper of the Unavenged
And He did say to him:
"Let you not pass
Abandon
Return to the world
From once you came
And seek payment
Not only for thy known anguish
But vindicate the souls
Of the Unavenged"

And they placed in his hands
A sword
Made for him
Called: Vengeance
Forged in brimstone
And tempered
By the Wolf in tears of the Unavenged

And to carry him up on his journey
Back to the upper world
They brought forth
Their Demon horse
Called: Black Death
A grim steed
So fiercely might
And black in colour
That he could stand as one: Darkness...
Save from his burning eyes
of grims and fire

And on that night
They rode up from Hell
The pounding of his hooves
Did clap like thunder !

Chorus:
Burning, death, destruction
Raping the daughters and wives
In blood I take my payment
In foul with their lives

No one can escape me
On Black Death I ride
When kissed by the sword of Vengeance
Your head lays there by your side
I take the lives of all that I once knew
The torn flesh of a slow death waits for you

Chorus:
Burning, death, destruction
Raping the daughters and wives
In blood I take my payment
In foul with their lives

I spare that land of servants
My wake is slow dead there
I take their wives and daughters
They stand there watching, watching
Hoping to get my life
But when I'm through they know they must pay

Chorus:
Burning, death, destruction
Raping the daughters and wives
In blood I take my payment
In foul with they lives
With they lives
With they lives
With they lives