TABULATORS TO DEATH TONE

by: Lukas ("Tyr"/"Xypher") G.
eMail: Lukaskixass@hotmail.com


p=pull off
----------
Riff1
e|-------------------------------------------------------------------------------------------------------------------|
h|-------------------------------------------------------------------------------------------------------------------|
g|-------------------------------------------------------------------------------------------------------------------|
d|--0---4-p-0---5-p-0---0-0---0---9-p-0---10-p-0---9-p-0--12---4-p-0---5-p-0---0-0---0---9-p-0----5-------5------7---|
a|------------------------------------------------------------------------------------------------3-------3------5---|
E|-------------------------------------------------------------------------------------------------------------------|

Riff2
e|----------------------------------------------------------------------------------------------------------|
h|----------------------------------------------------------------------------------------------------------|
g|----------------------------------------------------------------------------------------------------------|
d|--0---4-p-0---5-p-0---0-0---0---9-p-0---10-p-0---9-p-0--12---4-p-0---5-p-0---0-0---0---9-p-0---5-------5--|
a|-----------------------------------------------------------------------------------------------3-------3--|
E|----------------------------------------------------------------------------------------------------------|

Riff3
e|------------------------------------------|
h|------------------------------------------|
g|------------------------------------------|
d|------------------------------------10--7-|
a|-5-----------------------------------8--5-|
E|-3----------------------------------------|
Ridin' on two wheels... ...riding on steel

Riff4
e|---------------------------------------------------|
h|---------------------------------------------------|
g|---------------------------------------------------|
d|-3------------------------5------------------------|
a|-1------------------------3------------------------|
E|---------------------------------------------------|
Now, you were sittin'... ...I went to the bighouse...

Riff5
e|-------------------------------------------|
h|-------------------------------------------|
g|-------------------------------------------|
d|-7---------------------------------10---10-|
a|-5----------------------------------8----8-|
E|-------------------------------------------|
Hear me calling can't you hear my deathtone...

Riff6
e|-------------------------------------------------------------------------------------|
h|-------------------------------------------------------------------------------------|
g|-------------------------------------------------------------------------------------|
d|-3------------------------------9-----------------------------------------------10-9-|
a|-1------------------------------7------------------------------------------------8-7-|
E|-------------------------------------------------------------------------------------|
Hear me ride on into the night, pull along the side If you're looking for
a fight

4xRiff1
1xRiff2
2xRiff3
1xRiff4
2xRiff5
1xRiff6

repeat

-------------------------------------------------------
Solo:

You play, for Example, in the D-pentatonic to the following Riffs:
1xRiff3
1xRiff2
1xRiff3
1xRiff2
1xRiff4
2xRiff5
1xRiff6