TABULATORS TO DEFENDER

Defender Tab: by true.warrior@gmx.de
-------------------------------------|---------------------------------------
-------------------------------------|---------------------------------------
------------------2------------------|---------------------------------------
-----------2-------------------------|---------------------------------------
---0---------------------------------|---------------------------------------
-------------------------------------|---------------------------------------


-------------------------------------|----------------------------------------
-------------------------------------|----------------------------------------
------------------2------------------|---------------2-------2--------------
-----------2------------2-----------|----------2--------2--------2---------
---0---------------------------------|---0-----------------------------------
-------------------------------------|---------------------------------------

-------------------------------------|---------------------------------------
-------------------------------------|---------------------------------------
------------------2------------------|---------------2----------------------
-----------2-------------2----------|----------2---------------------------
---0---------------------------------|---0----------------------------------
-------------------------------------|---------------------------------------
Part A!!!
-------------------------------------|---------------------------------------
-------------------------------------|---------------------------------------
-----------------------------5-------|-----------------7-----------7-------
----------------------5--------------|-----------------------7--------------
---0-----2-----3--------------------|-5-7(H)-5--------------------------
-------------------------------------|---------------------------------------


-------------------------------------|---------------------------------------------------
-------------------------------------|---------------------------------------------------
--------------10------------\12----|-----------------------12\---------5--------2----
--------------10------------\12----|-----12--------12-------\---------5--------2----
5--7--8--------------------\10-----|----------10------------\----------3-------0----
-------------------------------------|---------------------------------------------------

Listen to the record, and you will get the timing and find out, how often it is repeated
"When you are old enough, to read these words,
-----------------------------------------|---------------------------------------
-----------------------------------------|---------------------------------------
---------2---------------2------2------|---------2------------2----------------
-----2-------2-------2------2------2--|------2-----2------2-----2------------
--0---------------0---------------------|---0-----------0----------------------
-----------------------------------------|---------------------------------------

their meaning, will unfold"
------------------------------------------------------|------------------
------------------------------------------------------|------------------
-----------------5----------------------7-----7\-----|----5-------2---NOTE : when You hear “… to the end” play part A!
------------5------------------------------7----\----|----5-------2----
0--2--3-------------------5-7(H)-5-----------\----|----3-------0----
------------------------------------------------------|------------------


defender
ride like the wind, fight proud my son, your the defender
-----------5----------------|--7-----9--------------------|-----7------
-x-x--5--7---7------------|--7--5--9--------------------|-5--7--7--
-x-x--5--5—7------------|--5--5--7--------------------|-5--5--7--
-x-x--3------5------------|------3-----------------------|--3-----5--
----------------------------|-------------------------------|------------
----------------------------|-------------------------------|------------

god has sent...
------------------------------------------------ --------
--------------------------------------------5-- at the end of the second time: play this instead of the left bars: --------
----7-7-x-x-7-7\------7-7-x-x-7--79--5-- ---------
----7-7-x-x-7-7\------7-7-x-x-7--79--3-- ----2-2--
----5-5-x-x-5-5\------5-5-x-x-5--57------ ----2-2-
------------------------------------------------ ----0-0--

Father, Father, Father I look……….
-------------------------|---------------------------------------
-------------------------|---------------------------------------the guitar plays now just the accords
-------------------------|---------------------------------------
---7--------7-------7---|---------------------------------------
---7--------7-------7---|-------0-2-3—and so on-----------
---5--------5-------5---|---------------------------------------

So wizards…..
-------------------------------------------------- This part is muted and a bit tricky, so I was to lazy to think about it
--------------------------------------------------
-----------------5------------------7-----7\-----
------------5--------------------------7----\----
0--2--3-------------------5-7-5-----------\----
-----------------------------------------
Solo:
Hey, fuck! I play the bass, not the damn metal guitar! By the way: It is a slow song, so its easy to practice your own killing solo!

Some notes:
1. Start this song with your fingers dude, to make it soft and mysterious, then of course use the plectrum.
2. Use the Hammer technique where I marked it (H); and make those killing slides (\) !!!
3. Ask your grandfather, if he would join in this song by reading Orson’s lyrics ;--)
4. Let HEAVY METAL never die!!! Turn up the amp and blow the speakers!!!

Hail and Kill
Alex de Ahsbahs