TABULATORS TO DIE FOR METAL

Die For Metal TAB
Song : Die For Metal
Band : ManOwaR
Album : Gods Of War (2007)
Tabbed By : The Jahlander 23/2/2007
for the German Defenders of Steel

This is for guide purposes only
This is not an official Jah Nix Productions Release

email : nick@jahnixproductions.com
web@ : www.jahnixproductions.com

Seeing as theres only 2/3 Riffs and a fill I wont bother with the intricacies
Use the recodring (as with all Tab) to find out the rhythm/palm muting etc.

DROPPED D
Riff1a
D-12-12-12-12----12-12-12-12-|-10-10-10-10----9--9--9--9--|
A-12-12-12-12----13-13-13-13-|-12-12-12-12----10-10-10-10-|
D-12-12-12-12----12-12-12-12-|-10-10-10-10----9--9--9--9--|

D-12-12-12-12----12-12-12-12-|-10-10-10-10----9--9--9--9----------|
A-12-12-12-12----13-13-13-13-|-12-12-12-12----10-10-10-10---8-7-8-|
D-12-12-12-12----12-12-12-12-|-10-10-10-10----9--9--9--9----8-7-8-|

D-0-----------|
A-0-----------|
D-0-----------|

Riff2a
D-0--0-x-x--2--2-x-x--3--3-x-x--|-5--5----|-0--------|
A-0--0-x-x--2--2-x-x--3--3-x-x--|-5--5----|-0--------|
D-0--0-x-x--2--2-x-x--3--3-x-x--|-5--5----|-0--------|

Riff1b
D-12-12-12-12----12-12-12-12--10-10-|-10-10-10-10----9--9--9--9--|
A-12-12-12-12----13-13-13-13--12-12-|-12-12-12-12----10-10-10-10-|
D-12-12-12-12----12-12-12-12--12-12-|-10-10-10-10----9--9--9--9--|

D-12-12-12-12----12-12-12-12-|-10-10-10-10----9--9--9--9----------|
A-12-12-12-12----13-13-13-13-|-12-12-12-12----10-10-10-10---8-7-8-|
D-12-12-12-12----12-12-12-12-|-10-10-10-10----9--9--9--9----8-7-8-|

D-0-----------|
A-0-----------|
D-0-----------|

Riff2a
D-0------2------3------|-5------|-0--------|
A-0------2------3------|-5------|-0--------|
D-0------2------3------|-5------|-0--------|

Ok I know there are variations to RIFF2 but THIS IS A GUIDE!
You should be able to work out the chords yourself
(there only power chord extensions off the root notes!)

Enjoy

nick@jahnixproductions.com
www.jahnixproductions.com