TABULATORS TO FAST TAKER

Transcribed By: Dave Thornus
E-Mail: Draconia@wxs.nl


Intro: X 2

There is a little guitar fill between C5 and D5 and D5 and G5 which I haven't figured out yet

-|----------------------------------------------------------------------------
-|---------------?-?-?-?-------?-?-?-?-?--------------------------------------
-|----------------------------------------------------------------------------
-|--2---------5-------------7--------------12---------------------------------
-|--0---------3-------------5--------------10---------------------------------
-|----------------------------------------------------------------------------


It's a bit tricky to get it right but it sound cool.
-|-----------------------------------------------
-|-----------------------------------------------
-|-----------------------------------------------
-|------5---4---7-4-4-5--------------------------
-|--0-0-3-0-2-0-5-2-2-3--------------------------
-|-----------------------------------------------