TABULATORS TO FIGHT FOR FREEDOM

Q E W W W
E||----------|-------------------|-------------------|-------------------|
B||----------|-------------------|-------------------|-------------------|
G||----------|-------------------|-------------------|-------------------|
D||----------|-------------------|-------------------|-------------------|
A||----------|-------------------|-------------------|-------------------|
D||----------|-------------------|-------------------|-------------------|


W W W W
-------------------|-------------------|-------------------|-------------------|
-------------------|-------------------|-------------------|-------------------|
-------------------|-------------------|-------------------|-------------------|
-------------------|-------------------|-------------------|-------------------|
-------------------|-------------------|-------------------|-------------------|
-------------------|-------------------|-------------------|-------------------|


W W W W
-------------------|-------------------|-------------------|-------------------|
-------------------|-------------------|-------------------|-------------------|
-------------------|-------------------|-------------------|-------------------|
-------------------|-------------------|-------------------|-------------------|
-------------------|-------------------|-------------------|-------------------|
-------------------|-------------------|-------------------|-------------------|


W W W W
-------------------|-------------------|-------------------|-------------------|
-------------------|-------------------|-------------------|-------------------|
-------------------|-------------------|-------------------|-------------------|
-------------------|-------------------|-------------------|-------------------|
-------------------|-------------------|-------------------|-------------------|
-------------------|-------------------|-------------------|-------------------|


W W W W
-------------------|-------------------|-------------------|-------------------|
-------------------|-------------------|-------------------|-------------------|
-------------------|-------------------|-------------------|-------------------|
-------------------|-------------------|-------------------|-------------------|
-------------------|-------------------|-------------------|-------------------|
-------------------|-------------------|-------------------|-------------------|


W H H H H
-------------------|--------------------|--------------------|
-------------------|--------------------|--------------------|
-------------------|-----------5--------|--7--------5--------|
-------------------|--3--------5--------|--7--------5--------|
-------------------|--3--------3--------|--5--------3--------|
-------------------|--3-----------------|--------------------|


H H H H H H
--------------------|--------------------|--------------------|
--------------------|--------------------|--------------------|
-----------5--------|--3--------5--------|-----------5--------|
--3--------5--------|--3--------5--------|--3--------5--------|
--3--------3--------|--1--------3--------|--3--------3--------|
--3-----------------|--------------------|--3-----------------|


H H H H W
--------------------|--------------------|-------------------|
--------------------|--------------------|-------------------|
--2--------3--------|--3--------5--------|-------------------|
--2--------3--------|--3--------5--------|--3----------------|
--0--------1--------|--1--------3--------|--3----------------|
--------------------|--------------------|--3----------------|


W W W W
-------------------|-------------------|-------------------|-------------------|
-------------------|-------------------|-------------------|-------------------|
-------------------|-------------------|-------------------|-------------------|
-------------------|-------------------|-------------------|-------------------|
-------------------|-------------------|-------------------|-------------------|
-------------------|-------------------|-------------------|-------------------|


W W W W
-------------------|-------------------|-------------------|-------------------|
-------------------|-------------------|-------------------|-------------------|
-------------------|-------------------|-------------------|-------------------|
-------------------|-------------------|-------------------|-------------------|
-------------------|-------------------|-------------------|-------------------|
-------------------|-------------------|-------------------|-------------------|


H H H H H H
--------------------|--------------------|--------------------|
--------------------|--------------------|--------------------|
-----------5--------|--7--------5--------|-----------5--------|
--3--------5--------|--7--------5--------|--3--------5--------|
--3--------3--------|--5--------3--------|--3--------3--------|
--3-----------------|--------------------|--3-----------------|


H H H H H H
--------------------|--------------------|--------------------|
--------------------|--------------------|--------------------|
--3--------5--------|-----------5--------|--2--------3--------|
--3--------5--------|--3--------5--------|--2--------3--------|
--1--------3--------|--3--------3--------|--0--------1--------|
--------------------|--3-----------------|--------------------|


H H H Q Q
--------------------|-----------------------|
--------------------|-----------------------|
--3--------5--------|-----------------------|
--3--------5--------|--3--------L-----------|
--1--------3--------|--3--------L-----------|
--------------------|--3--------L----13S----|


S S T T T T S S T T S S S T T T T S S T T S
----------------------------------------------|
----------------------------------------------|
------------------------3---3---3---3---3---3-|
--1---1---1---1---1---1-3---3---3---3---3---3-|
--1---1---1---1---1---1-1---1---1---1---1---1-|
--1---1---1---1---1---1-----------------------|


S S T T T T S S T T S S S T T T T S S T T S
----------------------------------------------|
----------------------------------------------|
----------------------------------------------|
--3---3---3---3---3---3-3---3---3---3---3---3-|
--3---3---3---3---3---3-3---3---3---3---3---3-|
--3---3---3---3---3---3-3---3---3---3---3---3-|


S S T T T T S S T T S S S T T T T S S T T S
----------------------------------------------|
----------------------------------------------|
------------------------3---3---3---3---3---3-|
--1---1---1---1---1---1-3---3---3---3---3---3-|
--1---1---1---1---1---1-1---1---1---1---1---1-|
--1---1---1---1---1---1-----------------------|


S S T T T T S S T T S Q Q
----------------------------------|
----------------------------------|
----------------------------------|
--3---3---3---3---3---3-3----3----|
--3---3---3---3---3---3-3----3----|
--3---3---3---3---3---3-3----3----|


S S T T T T S S T T S S S T T T T S S T T S
----------------------------------------------|
----------------------------------------------|
------------------------3---3---3---3---3---3-|
--1---1---1---1---1---1-3---3---3---3---3---3-|
--1---1---1---1---1---1-1---1---1---1---1---1-|
--1---1---1---1---1---1-----------------------|


S S T T T T S S T T S S S T T T T S S T T S
----------------------------------------------|
----------------------------------------------|
----------------------------------------------|
--3---3---3---3---3---3-3---3---3---3---3---3-|
--3---3---3---3---3---3-3---3---3---3---3---3-|
--3---3---3---3---3---3-3---3---3---3---3---3-|


S S T T T T S S T T S S S T T T T S S T T S S S S S S S S S H
----------------------------------------------|------------------13br--------|
----------------------------------------------|------------------------------|
------------------------3---3---3---3---3---3-|--5---5---5---5---------------|
--1---1---1---1---1---1-3---3---3---3---3---3-|--5---5---5---5---------------|
--1---1---1---1---1---1-1---1---1---1---1---1-|--3---3---3---3---------------|
--1---1---1---1---1---1-----------------------|------------------------------|


Q S S S S Q S S S S
----------------------------|
----------------------------|
----------------------------|
----------------------------|
---------------3----3-0-3-5-|
--3----3-5-3-5--------------|


Couldn't find out this part :-(
S S S S S S S S S S S S S S S S
----------------------------------------------------------------|
----------------------------------------------------------------|
----------------------------------5---5---5---5---7---7---9---9-|
--0---------------------------------0---0---0---0---0---0---0---|
----------------------------------------------------------------|
----------------------------------------------------------------|


E. S S S S S Q S S S S
--13----13--13--13--13--13-----------------------|
--16b---16b-16b-16b-16b-16b-13~-----------10h-13-|
-----------------------------------10h-12--------|
-------------------------------------------------|
-------------------------------------------------|
-------------------------------------------------|


|------3------| |-----3-----|
E E E Q S S E S S S S S S
-----------------------------------------------------------------|
--<>10b--<>10b--<>10b--10brb----10p-8-------------10S-11S-13S-11-|
--------------------------------------12~--10h-12----------------|
-----------------------------------------------------------------|
-----------------------------------------------------------------|
-----------------------------------------------------------------|


Q S E. Q S S S S
-------------------------------10h-13S-15-|
--13b----13b-13b---13pbr----13------------|
------------------------------------------|
------------------------------------------|
------------------------------------------|
------------------------------------------|


|----3----| |---3---|
E E E Q S S S Q S S
--15b--15b--15b--15b~----13h-15p-13--L----13S-15-|
-------------------------------------------------|
-------------------------------------------------|
-------------------------------------------------|
-------------------------------------------------|
-------------------------------------------------|


|---3---| |---3---|
E S S S E S S S E E. S S S
--13--12h-13p-12h-13~--12h-13p-12h-15b--15pbr---15-13-12-|
---------------------------------------------------------|
---------------------------------------------------------|
---------------------------------------------------------|
---------------------------------------------------------|
---------------------------------------------------------|


Q Q Q Q H H H H
--13~----(13)~----(13)-----L-----|--------------------|--------------------|
---------------------------------|--------------------|--------------------|
---------------------------------|-----------5--------|--7--------5--------|
---------------------------------|--3--------5--------|--7--------5--------|
---------------------------------|--3--------3--------|--5--------3--------|
--------------------------15S----|--3-----------------|--------------------|


H H H H H H
--------------------|--------------------|--------------------|
--------------------|--------------------|--------------------|
-----------5--------|--3--------5--------|-----------5--------|
--3--------5--------|--3--------5--------|--3--------5--------|
--3--------3--------|--1--------3--------|--3--------3--------|
--3-----------------|--------------------|--3-----------------|


H H H H W
--------------------|--------------------|-------------------|
--------------------|--------------------|-------------------|
--2--------3--------|--3--------5--------|-------------------|
--2--------3--------|--3--------5--------|--3----------------|
--0--------1--------|--1--------3--------|--3----------------|
--------------------|--------------------|--3----------------|


H H H H H H
--------------------|--------------------|--------------------|
--------------------|--------------------|--------------------|
-----------5--------|--7--------5--------|-----------5--------|
--3--------5--------|--7--------5--------|--3--------5--------|
--3--------3--------|--5--------3--------|--3--------3--------|
--3-----------------|--------------------|--3-----------------|


H H H H H H
--------------------|--------------------|--------------------|
--------------------|--------------------|--------------------|
--3--------5--------|-----------5--------|--2--------3--------|
--3--------5--------|--3--------5--------|--2--------3--------|
--1--------3--------|--3--------3--------|--0--------1--------|
--------------------|--3-----------------|--------------------|


H H W H H
--------------------|-------------------|--------------------|
--------------------|-------------------|--------------------|
--3--------5--------|-------------------|-----------5--------|
--3--------5--------|--3----------------|--3--------5--------|
--1--------3--------|--3----------------|--3--------3--------|
--------------------|--3----------------|--3-----------------|


H H H H H H
--------------------|--------------------|--------------------|
--------------------|--------------------|--------------------|
--7--------5--------|-----------5--------|--3--------5--------|
--7--------5--------|--3--------5--------|--3--------5--------|
--5--------3--------|--3--------3--------|--1--------3--------|
--------------------|--3-----------------|--------------------|


H H H H H H
--------------------|--------------------|--------------------|
--------------------|--------------------|--------------------|
-----------5--------|--2--------3--------|--3--------5--------|
--3--------5--------|--2--------3--------|--3--------5--------|
--3--------3--------|--0--------1--------|--1--------3--------|
--3-----------------|--------------------|--------------------|


W H H H H
-------------------|--------------------|--------------------|
-------------------|--------------------|--------------------|
-------------------|-----------5--------|--7--------5--------|
--3----------------|--3--------5--------|--7--------5--------|
--3----------------|--3--------3--------|--5--------3--------|
--3----------------|--3-----------------|--------------------|


H H H H H H
--------------------|--------------------|--------------------|
--------------------|--------------------|--------------------|
-----------5--------|--3--------5--------|-----------5--------|
--3--------5--------|--3--------5--------|--3--------5--------|
--3--------3--------|--1--------3--------|--3--------3--------|
--3-----------------|--------------------|--3-----------------|


H H H H W
--------------------|--------------------|-------------------|
--------------------|--------------------|-------------------|
--2--------3--------|--3--------5--------|-------------------|
--2--------3--------|--3--------5--------|--3----------------|
--0--------1--------|--1--------3--------|--3----------------|
--------------------|--------------------|--3----------------|


H H
--------------------||
--------------------||
-----------5--------||
--3--------5--------||
--3--------3--------||
--3-----------------||




Duration Legend
---------------
W - whole
H - half
Q - quarter
E - 8th
S - 16th
T - 32nd
X - 64th
. - note dotted
|-n-| - n-tuplets


Tablature Legend
----------------
L - tied note
x - dead note
g - grace note
(n) - ghost note
> - accentuded note
NH - natural harmonic
AH - artificial harmonic
TH - tapped harmonic
SH - semi harmonic
PH - pitch harmonic
h - hammer on
p - pull off
b - bend
br - bendRelease
pb - preBend
pbr - preBendRelease
brb - bendReleaseBend
\n/ - tremolo bar dip
\n - tremolo bar dive
-/n - tremolo bar Release up
/n\ - tremolo bar inverted dip
/n - tremolo bar return
-\n - tremolo bar Release down
S - shift slide
s - legato slide
/ - slide into from below or out of upwards
\ - slide into from above or out of downwards
~ - vibrato
W - wide vibrato
tr - trill
TP - tremolo picking
T - tapping
S - slap
P - pop
< - fade in
^ - brush up
v - brush down