TABULATORS TO FIGHT UNTIL WE DIE


PM PM PM PM PM PM PM PM PM PM PM PM
|--3--| |--3--| |--3--| |--3--|
E E E E E E E E E E E E
E||--------------------------------------|
B||--------------------------------------|
G||--------------------------------------|
D||--------------------------------------|
A||--7--7--7--7--7--7--7--7--7--7--7--7--|
E||--5--5--5--5--5--5--5--5--5--5--5--5--|


PM PM PM PM PM PM PM PM PM PM PM PM PM PM PM PM PM PM
|--3--| |--3--| |--3--| |--3--| |--3--| |--3--|
E E E E E E E E E E E E Q E E E E E E Q
--------------------------------------|------------------------------|
--------------------------------------|------------------------------|
--------------------------------------|------------------------------|
--------------------------------------|--3----------------------3----|
--7--7--7--7--7--7--7--7--7--7--7--7--|--3----3--3--3--3--3--3--3----|
--5--5--5--5--5--5--5--5--5--5--5--5--|--1----1--1--1--1--1--1--1----|


PM PM PM PM PM PM PM PM PM PM PM PM PM PM PM PM PM PM
|--3--| |--3--| |--3--| |--3--| |--3--| |--3--|
E E E E E E Q Q E E E E E E E E E E E E
------------------------------|--------------------------------------|
------------------------------|--------------------------------------|
------------------------------|--------------------------------------|
--------------------3----5----|--------------------------------------|
--3--3--3--3--3--3--3----5----|--7--7--7--7--7--7--7--7--7--7--7--7--|
--1--1--1--1--1--1--1----3----|--5--5--5--5--5--5--5--5--5--5--5--5--|


PM PM PM PM PM PM PM PM PM PM PM PM PM PM PM PM PM PM
|--3--| |--3--| |--3--| |--3--| |--3--| |--3--|
E E E E E E E E E E E E Q E E E E E E Q
--------------------------------------|------------------------------|
--------------------------------------|------------------------------|
--------------------------------------|------------------------------|
--------------------------------------|--3----------------------3----|
--7--7--7--7--7--7--7--7--7--7--7--7--|--3----3--3--3--3--3--3--3----|
--5--5--5--5--5--5--5--5--5--5--5--5--|--1----1--1--1--1--1--1--1----|


PM PM PM PM PM PM PM PM PM PM PM PM PM PM PM PM PM PM
|--3--| |--3--| |--3--| |--3--| |--3--| |--3--|
E E E E E E Q Q E E E E E E E E E E E E
------------------------------|--------------------------------------|
------------------------------|--------------------------------------|
------------------------------|--------------------------------------|
--------------------3----5----|--------------------------------------|
--3--3--3--3--3--3--3----5----|--7--7--7--7--7--7--7--7--7--7--7--7--|
--1--1--1--1--1--1--1----3----|--5--5--5--5--5--5--5--5--5--5--5--5--|


PM PM PM PM PM PM PM PM PM PM PM PM PM PM PM PM PM PM
|--3--| |--3--| |--3--| |--3--| |--3--| |--3--|
E E E E E E E E E E E E Q E E E E E E Q
--------------------------------------|------------------------------|
--------------------------------------|------------------------------|
--------------------------------------|------------------------------|
--------------------------------------|--3----------------------3----|
--7--7--7--7--7--7--7--7--7--7--7--7--|--3----3--3--3--3--3--3--3----|
--5--5--5--5--5--5--5--5--5--5--5--5--|--1----1--1--1--1--1--1--1----|


PM PM PM PM PM PM PM PM PM PM PM PM PM PM PM PM PM PM
|--3--| |--3--| |--3--| |--3--| |--3--| |--3--|
E E E E E E Q Q E E E E E E E E E E E E
------------------------------|--------------------------------------|
------------------------------|--------------------------------------|
------------------------------|--------------------------------------|
--------------------3----5----|--------------------------------------|
--3--3--3--3--3--3--3----5----|--7--7--7--7--7--7--7--7--7--7--7--7--|
--1--1--1--1--1--1--1----3----|--5--5--5--5--5--5--5--5--5--5--5--5--|


PM PM PM PM PM PM PM PM PM PM PM PM PM PM PM PM PM PM PM PM PM
|--3--| |--3--| |--3--| |--3--| |--3--| |--3--| |--3--|
E E E E E E E E E E E E E E E E E E Q E E E
--------------------------------------|----------------------------------|
--------------------------------------|----------------------------------|
--------------------------------------|----------------------------------|
--------------------------------------|--------------------7-------------|
--7--7--7--7--7--7--7--7--7--7--7--7--|--7--7--7--7--7--7--7----7--7--7--|
--5--5--5--5--5--5--5--5--5--5--5--5--|--5--5--5--5--5--5--5----5--5--5--|


PM PM PM
|--3--|
E E E Q H W W
-------------------------|-------------------|-------------------|
-------------------------|-------------------|-------------------|
-------------------------|-------------------|-------------------|
-----------7-------------|--7----------------|--L----------------|
--7--7--7--7-------------|--7----------------|--L----------------|
--5--5--5--5-------------|--5----------------|--L----------------|


W H Q Q W
-------------------|----------------------|-------------------|
-------------------|----------------------|-------------------|
-------------------|----------------------|-------------------|
--L----------------|--L--------7s----5----|--3----------------|
--L----------------|--L--------7s----5----|--3----------------|
--L----------------|--L--------5s----3----|--1----------------|


W W H Q Q
-------------------|-------------------|----------------------|
-------------------|-------------------|----------------------|
-------------------|-------------------|----------------------|
--L----------------|--L----------------|--L--------3s----5----|
--L----------------|--L----------------|--L--------3s----5----|
--L----------------|--L----------------|--L--------1s----3----|


W W W
-------------------|-------------------|-------------------|
-------------------|-------------------|-------------------|
-------------------|-------------------|-------------------|
--7----------------|--L----------------|--L----------------|
--7----------------|--L----------------|--L----------------|
--5----------------|--L----------------|--L----------------|


H Q Q W W
----------------------|-------------------|-------------------|
----------------------|-------------------|-------------------|
----------------------|-------------------|-------------------|
--L--------7s----5----|--3----------------|--L----------------|
--L--------7s----5----|--3----------------|--L----------------|
--L--------5s----3----|--1----------------|--L----------------|


PM PM PM PM PM PM PM PM PM
W H H E E E E S S E E E
-------------------|--------------------|-----------------------------|
-------------------|--------------------|-----------------------------|
-------------------|--------------------|-----------------------------|
--L----------------|--L--------3--------|-----------------------------|
--L----------------|--L--------3--------|--5--5--5--5--5--5--5--5--5--|
--L----------------|--L--------1--------|--3--3--3--3--3--3--3--3--3--|


PM PM PM PM PM PM PM PM PM PM PM PM PM PM PM PM PM PM PM PM PM PM
E E E E E E E E Q E E E E E E E E E E E E E E
--------------------------|-------------------------|--------------------------|
--------------------------|-------------------------|--------------------------|
--------------------------|-------------------------|--------------------------|
--------------------------|-------------------------|--------------------------|
--5--5--5--5--5--5--5--5--|--7----7--7--7--7--7--7--|--7--7--7--7--7--7--7--7--|
--3--3--3--3--3--3--3--3--|--5----5--5--5--5--5--5--|--5--5--5--5--5--5--5--5--|


PM PM PM PM PM PM PM PM PM PM PM PM PM PM PM PM PM PM PM PM PM
Q E E E E E E E E E E E E E E E E E E E E E E
-------------------------|--------------------------|--------------------------|
-------------------------|--------------------------|--------------------------|
-------------------------|--------------------------|--------------------------|
-------------------------|--------------------------|--------------------------|
--5----5--5--5--5--5--5--|--5--5--5--5--5--5--5--5--|--3--3--3--3--3--3--3--3--|
--3----3--3--3--3--3--3--|--3--3--3--3--3--3--3--3--|--1--1--1--1--1--1--1--1--|


PM PM PM PM PM PM PM PM PM PM PM PM PM
|--3--| |--3--|
E E E E E E E E Q E E E H Q E E E H
--------------------------|-------------------------|-------------------------|
--------------------------|-------------------------|-------------------------|
--------------------------|----------------5--------|----------------5--------|
--------------------------|--7-------------7--------|--L-------------7--------|
--2--2--2--2--2--2--2--2--|--7----7--7--7--7--------|--L----7--7--7--7--------|
--0--0--0--0--0--0--0--0--|--5----5--5--5--5--------|--L----5--5--5--5--------|


PM PM PM PM PM PM PM PM PM PM PM PM
|--3--| |--3--| |--3--| |--3--|
Q E E E E E E Q E E E E E E Q Q
------------------------------|------------------------------|
------------------------------|------------------------------|
------------------------------|------------------------------|
--3----------------------3----|--------------------3----5----|
--3----3--3--3--3--3--3--3----|--3--3--3--3--3--3--3----5----|
--1----1--1--1--1--1--1--1----|--1--1--1--1--1--1--1----3----|


PM PM PM PM PM PM
|--3--| |--3--|
Q E E E H Q E E E H
-------------------------|-------------------------|
-------------------------|-------------------------|
----------------5--------|----------------5--------|
--7-------------7--------|--L-------------7--------|
--7----7--7--7--7--------|--L----7--7--7--7--------|
--5----5--5--5--5--------|--L----5--5--5--5--------|


PM PM PM PM PM PM PM PM PM PM PM PM
|--3--| |--3--| |--3--| |--3--|
Q E E E E E E Q E E E E E E Q Q
------------------------------|------------------------------|
------------------------------|------------------------------|
------------------------------|------------------------------|
--3----------------------3----|--------------------3----3----|
--3----3--3--3--3--3--3--3----|--3--3--3--3--3--3--3----3----|
--1----1--1--1--1--1--1--1----|--1--1--1--1--1--1--1----1----|


PM PM PM PM PM PM PM PM PM PM PM PM PM PM PM
|--3--| |--3--| |--3--| |--3--| |--3--|
Q E E E E E E Q E E E E E E Q E E E
------------------------------|----------------------------------|
------------------------------|----------------------------------|
------------------------------|----------------------------------|
--5----------------------5----|--------------------5-------------|
--5----5--5--5--5--5--5--5----|--5--5--5--5--5--5--5----5--5--5--|
--3----3--3--3--3--3--3--3----|--3--3--3--3--3--3--3----3--3--3--|


PM PM PM PM PM PM PM PM PM PM PM PM
|--3--| |--3--| |--3--| |--3--|
Q E E E E E E Q E E E E E E Q Q
------------------------------|------------------------------|
------------------------------|------------------------------|
------------------------------|------------------------------|
--7----------------------7----|--------------------7----7----|
--7----7--7--7--7--7--7--7----|--7--7--7--7--7--7--7----7----|
--5----5--5--5--5--5--5--5----|--5--5--5--5--5--5--5----5----|


PM PM PM PM PM PM PM PM PM PM PM PM
|--3--| |--3--| |--3--| |--3--|
Q E E E E E E Q E E E E E E Q Q
------------------------------|------------------------------|
------------------------------|------------------------------|
------------------------------|------------------------------|
--5----------------------5----|--------------------5----5----|
--5----5--5--5--5--5--5--5----|--5--5--5--5--5--5--5----5----|
--3----3--3--3--3--3--3--3----|--3--3--3--3--3--3--3----3----|


PM PM PM PM PM PM PM PM PM PM PM PM
|--3--| |--3--| |--3--| |--3--|
Q E E E E E E Q E E E E E E Q Q
------------------------------|------------------------------|
------------------------------|------------------------------|
------------------------------|------------------------------|
--3----------------------3----|--------------------3----3----|
--3----3--3--3--3--3--3--3----|--3--3--3--3--3--3--3----3----|
--1----1--1--1--1--1--1--1----|--1--1--1--1--1--1--1----1----|


PM PM PM PM PM PM
|--3--| |--3--|
W Q Q Q Q E E E E E E H
-------------------|----------------------|-----------------------------|
-------------------|----------------------|-----------------------------|
-------------------|----------------------|--------------------5--------|
--2----------------|--2----0--------------|--------------------7--------|
--2----------------|------------3----2----|--7--7--7--7--7--7--7--------|
--0----------------|----------------------|--5--5--5--5--5--5--5--------|


W W W W
-------------------|-------------------|-------------------|-------------------|
-------------------|-------------------|-------------------|-------------------|
--L----------------|-------------------|-------------------|-------------------|
--L----------------|--7----------------|--L----------------|--3----------------|
--L----------------|--5----------------|--L----------------|--3----------------|
--L----------------|--5----------------|--L----------------|--1----------------|


PM PM PM
|--3--|
W W H. E E E
-------------------|-------------------|------------------------|
-------------------|-------------------|------------------------|
-------------------|-------------------|------------------------|
--5----------------|--7----------------|--L---------------------|
--5----------------|--7----------------|--L------------7--7--7--|
--3----------------|--5----------------|--L------------5--5--5--|


W W W
-------------------|-------------------|-------------------|
-------------------|-------------------|-------------------|
--5----------------|--L----------------|-------------------|
--7----------------|--L----------------|--7----------------|
--7----------------|--L----------------|--5----------------|
--5----------------|--L----------------|--5----------------|


H H W W
----------------------|-------------------|-------------------|
----------------------|-------------------|-------------------|
----------------------|-------------------|-------------------|
--L-------------------|--3----------------|--5----------------|
--L-------------------|--3----------------|--5----------------|
--L--------17S--------|--1----------------|--3----------------|


W W W W
-------------------|-------------------|-------------------|-------------------|
-------------------|-------------------|-------------------|-------------------|
-------------------|-------------------|-------------------|-------------------|
--2----------------|--L----------------|--3----------------|--5----------------|
--2----------------|--L----------------|--3----------------|--5----------------|
--0----------------|--L----------------|--1----------------|--3----------------|


PM PM PM PM PM PM PM PM PM PM PM PM PM
|--3--| |--3--| |--3--| |--3--|
E E E E E E Q E E E E E E E E Q Q
----------------------------------|---------------------------|
----------------------------------|---------------------------|
----------------------------------|---------------------------|
--------------------7-------------|-----------7-----7----5----|
--7--7--7--7--7--7--7----7--7--7--|--7--7--7--7--7--7----5----|
--5--5--5--5--5--5--5----5--5--5--|--5--5--5--5--5--5----3----|


PM PM PM PM PM PM PM PM PM PM PM PM PM
|--3--| |--3--| |--3--| |--3--|
E E E E E E Q E E E E E E E E Q Q
|-----------------------------------|----------------------------||
|-----------------------------------|----------------------------||
|*----------------------------------|---------------------------*||
|*--------------------7-------------|-----------7-----7----5----*||
|---7--7--7--7--7--7--7----7--7--7--|--7--7--7--7--7--7----5-----||
|---5--5--5--5--5--5--5----5--5--5--|--5--5--5--5--5--5----3-----||


PM PM PM PM PM PM PM PM PM PM PM PM
|--3--| |--3--| |--3--| |--3--|
E E E E E E Q E E E E E E Q H
----------------------------------|-------------------------|
----------------------------------|-------------------------|
----------------------------------|-------------------------|
--------------------7-------------|-----------7-------------|
--7--7--7--7--7--7--7----7--7--7--|--7--7--7--7-------------|
--5--5--5--5--5--5--5----5--5--5--|--5--5--5--5-------------|


PM PM PM PM PM PM
|--3--| |--3--|
Q E E E H Q E E E H
-------------------------|-------------------------|
-------------------------|-------------------------|
----------------5--------|----------------5--------|
--7-------------7--------|--L-------------7--------|
--7----7--7--7--7--------|--L----7--7--7--7--------|
--5----5--5--5--5--------|--L----5--5--5--5--------|


PM PM PM PM PM PM PM PM PM PM PM PM
|--3--| |--3--| |--3--| |--3--|
Q E E E E E E Q E E E E E E Q Q
------------------------------|------------------------------|
------------------------------|------------------------------|
------------------------------|------------------------------|
--3----------------------3----|--------------------3----5----|
--3----3--3--3--3--3--3--3----|--3--3--3--3--3--3--3----5----|
--1----1--1--1--1--1--1--1----|--1--1--1--1--1--1--1----3----|


PM PM PM PM PM PM
|--3--| |--3--|
Q E E E H Q E E E H
-------------------------|-------------------------|
-------------------------|-------------------------|
----------------5--------|----------------5--------|
--7-------------7--------|--L-------------7--------|
--7----7--7--7--7--------|--L----7--7--7--7--------|
--5----5--5--5--5--------|--L----5--5--5--5--------|


PM PM PM PM PM PM PM PM PM PM PM PM
|--3--| |--3--| |--3--| |--3--|
Q E E E E E E Q E E E E E E Q Q
------------------------------|------------------------------|
------------------------------|------------------------------|
------------------------------|------------------------------|
--3----------------------3----|--------------------3----3----|
--3----3--3--3--3--3--3--3----|--3--3--3--3--3--3--3----3----|
--1----1--1--1--1--1--1--1----|--1--1--1--1--1--1--1----1----|


PM PM PM PM PM PM PM PM PM PM PM PM PM PM PM
|--3--| |--3--| |--3--| |--3--| |--3--|
Q E E E E E E Q E E E E E E Q E E E
------------------------------|----------------------------------|
------------------------------|----------------------------------|
------------------------------|----------------------------------|
--5----------------------5----|--------------------5-------------|
--5----5--5--5--5--5--5--5----|--5--5--5--5--5--5--5----5--5--5--|
--3----3--3--3--3--3--3--3----|--3--3--3--3--3--3--3----3--3--3--|


PM PM PM PM PM PM PM PM PM PM PM PM
|--3--| |--3--| |--3--| |--3--|
Q E E E E E E Q E E E E E E Q Q
------------------------------|------------------------------|
------------------------------|------------------------------|
------------------------------|------------------------------|
--7----------------------7----|--------------------7----7----|
--7----7--7--7--7--7--7--7----|--7--7--7--7--7--7--7----7----|
--5----5--5--5--5--5--5--5----|--5--5--5--5--5--5--5----5----|


PM PM PM PM PM PM PM PM PM PM PM PM
|--3--| |--3--| |--3--| |--3--|
Q E E E E E E Q E E E E E E Q Q
------------------------------|------------------------------|
------------------------------|------------------------------|
------------------------------|------------------------------|
--5----------------------5----|--------------------5----5----|
--5----5--5--5--5--5--5--5----|--5--5--5--5--5--5--5----5----|
--3----3--3--3--3--3--3--3----|--3--3--3--3--3--3--3----3----|


PM PM PM PM PM PM PM PM PM PM PM PM
|--3--| |--3--| |--3--| |--3--|
Q E E E E E E Q E E E E E E Q Q
------------------------------|------------------------------|
------------------------------|------------------------------|
------------------------------|------------------------------|
--3----------------------3----|--------------------3----3----|
--3----3--3--3--3--3--3--3----|--3--3--3--3--3--3--3----3----|
--1----1--1--1--1--1--1--1----|--1--1--1--1--1--1--1----1----|


PM PM PM PM PM PM
|--3--| |--3--|
H. E E Q Q Q Q E E E E E E H
---------------------|----------------------|-----------------------------|
---------------------|----------------------|-----------------------------|
---------------------|----------------------|--------------------5--------|
--2------------2--2--|--2----0--------------|--------------------7--------|
--2------------------|------------3----2----|--7--7--7--7--7--7--7--------|
--0------------------|----------------------|--5--5--5--5--5--5--5--------|


W W W W
-------------------|-------------------|-------------------|-------------------|
-------------------|-------------------|-------------------|-------------------|
--L----------------|-------------------|-------------------|-------------------|
--L----------------|--7----------------|--L----------------|--3----------------|
--L----------------|--5----------------|--L----------------|--3----------------|
--L----------------|--5----------------|--L----------------|--1----------------|


PM PM PM
|--3--|
W W H. E E E
-------------------|-------------------|------------------------|
-------------------|-------------------|------------------------|
-------------------|-------------------|------------------------|
--5----------------|--7----------------|--L---------------------|
--5----------------|--7----------------|--L------------7--7--7--|
--3----------------|--5----------------|--L------------5--5--5--|


W W W
-------------------|-------------------|-------------------|
-------------------|-------------------|-------------------|
--5----------------|--L----------------|-------------------|
--7----------------|--L----------------|--7----------------|
--7----------------|--L----------------|--5----------------|
--5----------------|--L----------------|--5----------------|


H. Q W W
----------------------|-------------------|-------------------|
----------------------|-------------------|-------------------|
----------------------|-------------------|-------------------|
--L-------------------|--3----------------|--5----------------|
--L-------------------|--3----------------|--5----------------|
--L------------17S----|--1----------------|--3----------------|


W W W W
-------------------|-------------------|-------------------|-------------------|
-------------------|-------------------|-------------------|-------------------|
-------------------|-------------------|-------------------|-------------------|
--2----------------|--L----------------|--3----------------|--5----------------|
--2----------------|--L----------------|--3----------------|--5----------------|
--0----------------|--L----------------|--1----------------|--3----------------|


PM PM PM PM PM PM PM PM PM PM PM PM PM
|--3--| |--3--| |--3--| |--3--|
E E E E E E Q E E E E E E E E Q Q
----------------------------------|---------------------------|
----------------------------------|---------------------------|
----------------------------------|---------------------------|
--------------------7-------------|-----------7-----7----5----|
--7--7--7--7--7--7--7----7--7--7--|--7--7--7--7--7--7----5----|
--5--5--5--5--5--5--5----5--5--5--|--5--5--5--5--5--5----3----|


PM PM PM PM PM PM PM PM PM PM PM PM PM
|--3--| |--3--| |--3--| |--3--|
E E E E E E Q E E E E E E E E Q Q
----------------------------------|---------------------------|
----------------------------------|---------------------------|
----------------------------------|---------------------------|
--------------------7-------------|-----------7-----7----5----|
--7--7--7--7--7--7--7----7--7--7--|--7--7--7--7--7--7----5----|
--5--5--5--5--5--5--5----5--5--5--|--5--5--5--5--5--5----3----|


PM PM PM PM PM PM PM PM PM PM PM PM PM
|--3--| |--3--| |--3--| |--3--|
E E E E E E Q E E E E E E E E Q Q
----------------------------------|---------------------------|
----------------------------------|---------------------------|
----------------------------------|---------------------------|
--------------------7-------------|-----------7-----7----5----|
--7--7--7--7--7--7--7----7--7--7--|--7--7--7--7--7--7----5----|
--5--5--5--5--5--5--5----5--5--5--|--5--5--5--5--5--5----3----|


PM PM PM PM PM PM PM PM PM PM PM PM
|--3--| |--3--| |--3--| |--3--|
E E E E E E Q E E E E E E Q H
----------------------------------|-------------------------|
----------------------------------|-------------------------|
----------------------------------|-------------------------|

--------------------7-------------|-----------7-------------|
--7--7--7--7--7--7--7----7--7--7--|--7--7--7--7-------------|
--5--5--5--5--5--5--5----5--5--5--|--5--5--5--5-------------|


W W W
-------------------|-------------------|-------------------|
-------------------|-------------------|-------------------|
-------------------|-------------------|-------------------|
--7----------------|--L----------------|--L----------------|
--7----------------|--L----------------|--L----------------|
--5----------------|--L----------------|--L----------------|


H Q Q W W
----------------------|-------------------|-------------------|
----------------------|-------------------|-------------------|
----------------------|-------------------|-------------------|
--L--------7s----5----|--3----------------|--L----------------|
--L--------7s----5----|--3----------------|--L----------------|
--L--------5s----3----|--1----------------|--L----------------|


W H Q Q W
-------------------|----------------------|-------------------|
-------------------|----------------------|-------------------|
-------------------|----------------------|-------------------|
--L----------------|--L--------3s----5----|--7----------------|
--L----------------|--L--------3s----5----|--7----------------|
--L----------------|--L--------1s----3----|--5----------------|


W W H Q Q
-------------------|-------------------|----------------------|
-------------------|-------------------|----------------------|
-------------------|-------------------|----------------------|
--L----------------|--L----------------|--L--------7s----5----|
--L----------------|--L----------------|--L--------7s----5----|
--L----------------|--L----------------|--L--------5s----3----|


W W W
-------------------|-------------------|-------------------|
-------------------|-------------------|-------------------|
-------------------|-------------------|-------------------|
--3----------------|--L----------------|--L----------------|
--3----------------|--L----------------|--L----------------|
--1----------------|--L----------------|--L----------------|


PM PM PM PM PM PM PM PM PM PM PM PM PM PM PM PM PM
H H E E E E S S E E E E E E E E E E E
--------------------|-----------------------------|--------------------------|
--------------------|-----------------------------|--------------------------|
--------------------|-----------------------------|--------------------------|
--L--------3--------|-----------------------------|--------------------------|
--L--------3--------|--5--5--5--5--5--5--5--5--5--|--5--5--5--5--5--5--5--5--|
--L--------1--------|--3--3--3--3--3--3--3--3--3--|--3--3--3--3--3--3--3--3--|


PM PM PM PM PM PM PM PM PM PM PM PM PM PM PM PM PM PM PM PM
Q E E E E E E E E E E E E E E Q E E E E E E
-------------------------|--------------------------|-------------------------|
-------------------------|--------------------------|-------------------------|
-------------------------|--------------------------|-------------------------|
-------------------------|--------------------------|-------------------------|
--7----7--7--7--7--7--7--|--7--7--7--7--7--7--7--7--|--5----5--5--5--5--5--5--|
--5----5--5--5--5--5--5--|--5--5--5--5--5--5--5--5--|--3----3--3--3--3--3--3--|


PM PM PM PM PM PM PM PM PM PM PM PM PM PM PM PM PM PM PM PM PM
E E E E E E E E Q E E E E E E E E E E E E E E
--------------------------|-------------------------|--------------------------|
--------------------------|-------------------------|--------------------------|
--------------------------|-------------------------|--------------------------|
--------------------------|-------------------------|--------------------------|
--5--5--5--5--5--5--5--5--|--3----3--3--3--3--3--3--|--2--2--2--2--2--2--2--2--|
--3--3--3--3--3--3--3--3--|--1----1--1--1--1--1--1--|--0--0--0--0--0--0--0--0--|


PM PM PM PM PM PM
|--3--| |--3--|
Q E E E H Q E E E H
-------------------------|-------------------------|
-------------------------|-------------------------|
----------------5--------|----------------5--------|
--7-------------7--------|--L-------------7--------|
--7----7--7--7--7--------|--L----7--7--7--7--------|
--5----5--5--5--5--------|--L----5--5--5--5--------|


PM PM PM PM PM PM PM PM PM PM PM PM
|--3--| |--3--| |--3--| |--3--|
Q E E E E E E Q E E E E E E Q Q
------------------------------|------------------------------|
------------------------------|------------------------------|
------------------------------|------------------------------|
--3----------------------3----|--------------------3----5----|
--3----3--3--3--3--3--3--3----|--3--3--3--3--3--3--3----5----|
--1----1--1--1--1--1--1--1----|--1--1--1--1--1--1--1----3----|


PM PM PM PM PM PM
|--3--| |--3--|
Q E E E H Q E E E H
-------------------------|-------------------------|
-------------------------|-------------------------|
----------------5--------|----------------5--------|
--7-------------7--------|--L-------------7--------|
--7----7--7--7--7--------|--L----7--7--7--7--------|
--5----5--5--5--5--------|--L----5--5--5--5--------|


PM PM PM PM PM PM PM PM PM PM PM PM
|--3--| |--3--| |--3--| |--3--|
Q E E E E E E Q E E E E E E Q Q
------------------------------|------------------------------|
------------------------------|------------------------------|
------------------------------|------------------------------|
--3----------------------3----|--------------------3----3----|
--3----3--3--3--3--3--3--3----|--3--3--3--3--3--3--3----3----|
--1----1--1--1--1--1--1--1----|--1--1--1--1--1--1--1----1----|


PM PM PM PM PM PM PM PM PM PM PM PM
|--3--| |--3--| |--3--| |--3--|
Q E E E E E E Q E E E E E E Q Q
------------------------------|------------------------------|
------------------------------|------------------------------|
------------------------------|------------------------------|
--5----------------------5----|--------------------5----5----|
--5----5--5--5--5--5--5--5----|--5--5--5--5--5--5--5----5----|
--3----3--3--3--3--3--3--3----|--3--3--3--3--3--3--3----3----|


PM PM PM PM PM PM PM PM PM PM PM PM
|--3--| |--3--| |--3--| |--3--|
Q E E E E E E Q E E E E E E Q Q
------------------------------|------------------------------|
------------------------------|------------------------------|
------------------------------|------------------------------|
--7----------------------7----|--------------------7----7----|
--7----7--7--7--7--7--7--7----|--7--7--7--7--7--7--7----7----|
--5----5--5--5--5--5--5--5----|--5--5--5--5--5--5--5----5----|


PM PM PM PM PM PM PM PM PM PM PM PM
|--3--| |--3--| |--3--| |--3--|
Q E E E E E E Q E E E E E E Q Q
------------------------------|------------------------------|
------------------------------|------------------------------|
------------------------------|------------------------------|
--5----------------------5----|--------------------5----5----|
--5----5--5--5--5--5--5--5----|--5--5--5--5--5--5--5----5----|
--3----3--3--3--3--3--3--3----|--3--3--3--3--3--3--3----3----|


PM PM PM PM PM PM PM PM PM PM PM PM
|--3--| |--3--| |--3--| |--3--|
Q E E E E E E Q E E E E E E Q Q
------------------------------|------------------------------|
------------------------------|------------------------------|
------------------------------|------------------------------|
--3----------------------3----|--------------------3----3----|
--3----3--3--3--3--3--3--3----|--3--3--3--3--3--3--3----3----|
--1----1--1--1--1--1--1--1----|--1--1--1--1--1--1--1----1----|


PM PM PM PM PM PM
|--3--| |--3--|
H. Q Q Q Q Q E E E E E E H
--------------------|----------------------|-----------------------------|
--------------------|----------------------|-----------------------------|
--------------------|----------------------|--------------------5--------|
--2------------2----|--2----0--------------|--------------------7--------|
--2-----------------|------------3----2----|--7--7--7--7--7--7--7--------|
--0-----------------|----------------------|--5--5--5--5--5--5--5--------|


W W W W
-------------------|-------------------|-------------------|-------------------|
-------------------|-------------------|-------------------|-------------------|
--L----------------|-------------------|-------------------|-------------------|
--L----------------|--7----------------|--L----------------|--3----------------|
--L----------------|--5----------------|--L----------------|--3----------------|
--L----------------|--5----------------|--L----------------|--1----------------|


PM PM PM
|--3--|
W W H. E E E
-------------------|-------------------|------------------------|
-------------------|-------------------|------------------------|
-------------------|-------------------|------------------------|
--5----------------|--7----------------|--L---------------------|
--5----------------|--7----------------|--L------------7--7--7--|
--3----------------|--5----------------|--L------------5--5--5--|


W W W
-------------------|-------------------|-------------------|
-------------------|-------------------|-------------------|
--5----------------|--L----------------|-------------------|
--7----------------|--L----------------|--7----------------|
--7----------------|--L----------------|--5----------------|
--5----------------|--L----------------|--5----------------|


H H W W
----------------------|-------------------|-------------------|
----------------------|-------------------|-------------------|
----------------------|-------------------|-------------------|
--L-------------------|--3----------------|--5----------------|
--L-------------------|--3----------------|--5----------------|
--L--------17S--------|--1----------------|--3----------------|


W W H H
-------------------|-------------------|--------------------|
-------------------|-------------------|--------------------|
-------------------|-------------------|-----------5--------|
--7----------------|--L----------------|--7--------7--------|
--7----------------|--L----------------|--7--------7--------|
--5----------------|--L----------------|--5--------5--------|


W W W W
-------------------|-------------------|-------------------|-------------------|
-------------------|-------------------|-------------------|-------------------|
--L----------------|-------------------|-------------------|-------------------|
--L----------------|--7----------------|--L----------------|--3----------------|
--L----------------|--5----------------|--L----------------|--3----------------|
--L----------------|--5----------------|--L----------------|--1----------------|


PM PM PM
|--3--|
W W H. E E E
-------------------|-------------------|------------------------|
-------------------|-------------------|------------------------|
-------------------|-------------------|------------------------|
--5----------------|--7----------------|--L---------------------|
--5----------------|--7----------------|--L------------7--7--7--|
--3----------------|--5----------------|--L------------5--5--5--|


W W W
-------------------|-------------------|-------------------|
-------------------|-------------------|-------------------|
--5----------------|--L----------------|-------------------|
--7----------------|--L----------------|--7----------------|
--7----------------|--L----------------|--5----------------|
--5----------------|--L----------------|--5----------------|


H H W W
----------------------|-------------------|-------------------|
----------------------|-------------------|-------------------|
----------------------|-------------------|-------------------|
--L-------------------|--3----------------|--5----------------|
--L-------------------|--3----------------|--5----------------|
--L--------17S--------|--1----------------|--3----------------|


W W W W
-------------------|-------------------|-------------------|-------------------|
-------------------|-------------------|-------------------|-------------------|
-------------------|-------------------|-------------------|-------------------|
--2----------------|--L----------------|--3----------------|--5----------------|
--2----------------|--L----------------|--3----------------|--5----------------|
--0----------------|--L----------------|--1----------------|--3----------------|


W W W W
-------------------|-------------------|-------------------|-------------------|
-------------------|-------------------|-------------------|-------------------|
-------------------|-------------------|-------------------|-------------------|
--3----------------|--5----------------|--3----------------|--5----------------|
--3----------------|--5----------------|--3----------------|--5----------------|
--1----------------|--3----------------|--1----------------|--3----------------|


PM PM PM PM PM PM PM PM PM PM PM PM PM
|--3--| |--3--| |--3--| |--3--|
E E E E E E Q E E E E E E E E Q Q
----------------------------------|---------------------------|
----------------------------------|---------------------------|
----------------------------------|---------------------------|
--------------------7-------------|-----------7-----7----5----|
--7--7--7--7--7--7--7----7--7--7--|--7--7--7--7--7--7----5----|
--5--5--5--5--5--5--5----5--5--5--|--5--5--5--5--5--5----3----|


PM PM PM PM PM PM PM PM PM PM PM PM PM
|--3--| |--3--| |--3--| |--3--|
E E E E E E Q E E E E E E E E Q Q
----------------------------------|---------------------------|
----------------------------------|---------------------------|
----------------------------------|---------------------------|
--------------------7-------------|-----------7-----7----5----|
--7--7--7--7--7--7--7----7--7--7--|--7--7--7--7--7--7----5----|
--5--5--5--5--5--5--5----5--5--5--|--5--5--5--5--5--5----3----|


PM PM PM PM PM PM PM PM PM PM PM PM PM
|--3--| |--3--| |--3--| |--3--|
E E E E E E Q E E E E E E E E Q Q
----------------------------------|---------------------------|
----------------------------------|---------------------------|
----------------------------------|---------------------------|
--------------------7-------------|-----------7-----7----5----|
--7--7--7--7--7--7--7----7--7--7--|--7--7--7--7--7--7----5----|
--5--5--5--5--5--5--5----5--5--5--|--5--5--5--5--5--5----3----|


PM PM PM PM PM PM PM PM PM PM PM PM PM
|--3--| |--3--| |--3--| |--3--|
E E E E E E Q E E E E E E E E Q Q
----------------------------------|---------------------------|
----------------------------------|---------------------------|
----------------------------------|---------------------------|
--------------------7-------------|-----------7-----7----5----|
--7--7--7--7--7--7--7----7--7--7--|--7--7--7--7--7--7----5----|
--5--5--5--5--5--5--5----5--5--5--|--5--5--5--5--5--5----3----|


PM PM PM PM PM PM PM PM PM PM PM PM PM
|--3--| |--3--| |--3--| |--3--|
E E E E E E Q E E E E E E E E Q Q
----------------------------------|---------------------------|
----------------------------------|---------------------------|
----------------------------------|---------------------------|
--------------------7-------------|-----------7-----7----5----|
--7--7--7--7--7--7--7----7--7--7--|--7--7--7--7--7--7----5----|
--5--5--5--5--5--5--5----5--5--5--|--5--5--5--5--5--5----3----|


PM PM PM PM PM PM PM PM PM PM PM PM PM
|--3--| |--3--| |--3--| |--3--|
E E E E E E Q E E E E E E E E Q Q
----------------------------------|---------------------------|
----------------------------------|---------------------------|
----------------------------------|---------------------------|
--------------------7-------------|-----------7-----7----5----|
--7--7--7--7--7--7--7----7--7--7--|--7--7--7--7--7--7----5----|
--5--5--5--5--5--5--5----5--5--5--|--5--5--5--5--5--5----3----|


PM PM PM PM PM PM PM PM PM PM PM PM PM
|--3--| |--3--| |--3--| |--3--|
E E E E E E Q E E E E E E E E Q Q
----------------------------------|---------------------------|
----------------------------------|---------------------------|
----------------------------------|---------------------------|
--------------------7-------------|-----------7-----7----5----|
--7--7--7--7--7--7--7----7--7--7--|--7--7--7--7--7--7----5----|
--5--5--5--5--5--5--5----5--5--5--|--5--5--5--5--5--5----3----|


PM PM PM PM PM PM PM PM PM PM PM PM PM
|--3--| |--3--| |--3--| |--3--|
E E E E E E Q E E E E E E E E Q Q
----------------------------------|---------------------------|
----------------------------------|---------------------------|
----------------------------------|---------------------------|
--------------------7-------------|-----------7-----7----5----|
--7--7--7--7--7--7--7----7--7--7--|--7--7--7--7--7--7----5----|
--5--5--5--5--5--5--5----5--5--5--|--5--5--5--5--5--5----3----|


PM PM PM PM PM PM PM PM PM PM PM PM
|--3--| |--3--| |--3--| |--3--|
E E E E E E Q E E E E E E Q H
----------------------------------|-------------------------||
----------------------------------|-------------------------||
----------------------------------|-------------------------||
--------------------7-------------|-----------7-------------||
--7--7--7--7--7--7--7----7--7--7--|--7--7--7--7-------------||
--5--5--5--5--5--5--5----5--5--5--|--5--5--5--5-------------||




Duration Legend
---------------
W - whole
H - half
Q - quarter
E - 8th
S - 16th
T - 32nd
X - 64th
. - note dotted
|-n-| - n-tuplets


Tablature Legend
----------------
L - tied note
x - dead note
g - grace note
(n) - ghost note
> - accentuded note
NH - natural harmonic
AH - artificial harmonic
TH - tapped harmonic
SH - semi harmonic
PH - pitch harmonic
h - hammer on
p - pull off
b - bend
br - bendRelease
pb - preBend
pbr - preBendRelease
brb - bendReleaseBend
\n/ - tremolo bar dip
\n - tremolo bar dive
-/n - tremolo bar Release up
/n\ - tremolo bar inverted dip
/n - tremolo bar return
-\n - tremolo bar Release down
S - shift slide
s - legato slide
/ - slide into from below or out of upwards
\ - slide into from above or out of downwards
~ - vibrato
W - wide vibrato
tr - trill
TP - tremolo picking
T - tapping
S - slap
P - pop
< - fade in
^ - brush up
v - brush down


Solo:
W W W
E||-------------------|-------------------|-------------------|
B||-------------------|-------------------|-------------------|
G||-------------------|-------------------|-------------------|
D||-------------------|-------------------|-------------------|
A||-------------------|-------------------|-------------------|
E||-------------------|-------------------|-------------------|


W W W W
-------------------|-------------------|-------------------|-------------------|
-------------------|-------------------|-------------------|-------------------|
-------------------|-------------------|-------------------|-------------------|
-------------------|-------------------|-------------------|-------------------|
-------------------|-------------------|-------------------|-------------------|
-------------------|-------------------|-------------------|-------------------|


W W W W
-------------------|-------------------|-------------------|-------------------|
-------------------|-------------------|-------------------|-------------------|
-------------------|-------------------|-------------------|-------------------|
-------------------|-------------------|-------------------|-------------------|
-------------------|-------------------|-------------------|-------------------|
-------------------|-------------------|-------------------|-------------------|


W W W W
-------------------|-------------------|-------------------|-------------------|
-------------------|-------------------|-------------------|-------------------|
-------------------|-------------------|-------------------|-------------------|
-------------------|-------------------|-------------------|-------------------|
-------------------|-------------------|-------------------|-------------------|
-------------------|-------------------|-------------------|-------------------|


W W W W
-------------------|-------------------|-------------------|-------------------|
-------------------|-------------------|-------------------|-------------------|
-------------------|-------------------|-------------------|-------------------|
-------------------|-------------------|-------------------|-------------------|
-------------------|-------------------|-------------------|-------------------|
-------------------|-------------------|-------------------|-------------------|


W W W W
-------------------|-------------------|-------------------|-------------------|
-------------------|-------------------|-------------------|-------------------|
-------------------|-------------------|-------------------|-------------------|
-------------------|-------------------|-------------------|-------------------|
-------------------|-------------------|-------------------|-------------------|
-------------------|-------------------|-------------------|-------------------|


W W W W
-------------------|-------------------|-------------------|-------------------|
-------------------|-------------------|-------------------|-------------------|
-------------------|-------------------|-------------------|-------------------|
-------------------|-------------------|-------------------|-------------------|
-------------------|-------------------|-------------------|-------------------|
-------------------|-------------------|-------------------|-------------------|


W W W W
-------------------|-------------------|-------------------|-------------------|
-------------------|-------------------|-------------------|-------------------|
-------------------|-------------------|-------------------|-------------------|
-------------------|-------------------|-------------------|-------------------|
-------------------|-------------------|-------------------|-------------------|
-------------------|-------------------|-------------------|-------------------|


W W W W
-------------------|-------------------|-------------------|-------------------|
-------------------|-------------------|-------------------|-------------------|
-------------------|-------------------|-------------------|-------------------|
-------------------|-------------------|-------------------|-------------------|
-------------------|-------------------|-------------------|-------------------|
-------------------|-------------------|-------------------|-------------------|


W W W W
-------------------|-------------------|-------------------|-------------------|
-------------------|-------------------|-------------------|-------------------|
-------------------|-------------------|-------------------|-------------------|
-------------------|-------------------|-------------------|-------------------|
-------------------|-------------------|-------------------|-------------------|
-------------------|-------------------|-------------------|-------------------|


W W W W
-------------------|-------------------|-------------------|-------------------|
-------------------|-------------------|-------------------|-------------------|
-------------------|-------------------|-------------------|-------------------|
-------------------|-------------------|-------------------|-------------------|
-------------------|-------------------|-------------------|-------------------|
-------------------|-------------------|-------------------|-------------------|


W W W W
-------------------|-------------------|-------------------|-------------------|
-------------------|-------------------|-------------------|-------------------|
-------------------|-------------------|-------------------|-------------------|
-------------------|-------------------|-------------------|-------------------|
-------------------|-------------------|-------------------|-------------------|
-------------------|-------------------|-------------------|-------------------|


W W W W
-------------------|-------------------|-------------------|-------------------|
-------------------|-------------------|-------------------|-------------------|
-------------------|-------------------|-------------------|-------------------|
-------------------|-------------------|-------------------|-------------------|
-------------------|-------------------|-------------------|-------------------|
-------------------|-------------------|-------------------|-------------------|


W W W W
-------------------|-------------------|-------------------|-------------------|
-------------------|-------------------|-------------------|-------------------|
-------------------|-------------------|-------------------|-------------------|
-------------------|-------------------|-------------------|-------------------|
-------------------|-------------------|-------------------|-------------------|
-------------------|-------------------|-------------------|-------------------|


W W W W
-------------------|-------------------|-------------------|-------------------|
-------------------|-------------------|-------------------|-------------------|
-------------------|-------------------|-------------------|-------------------|
-------------------|-------------------|-------------------|-------------------|
-------------------|-------------------|-------------------|-------------------|
-------------------|-------------------|-------------------|-------------------|


W W W W
-------------------|-------------------|-------------------|-------------------|
-------------------|-------------------|-------------------|-------------------|
-------------------|-------------------|-------------------|-------------------|
-------------------|-------------------|-------------------|-------------------|
-------------------|-------------------|-------------------|-------------------|
-------------------|-------------------|-------------------|-------------------|


W W W W
-------------------|-------------------|-------------------|-------------------|
-------------------|-------------------|-------------------|-------------------|
-------------------|-------------------|-------------------|-------------------|
-------------------|-------------------|-------------------|-------------------|
-------------------|-------------------|-------------------|-------------------|
-------------------|-------------------|-------------------|-------------------|


W W W W
-------------------|-------------------|-------------------|-------------------|
-------------------|-------------------|-------------------|-------------------|
-------------------|-------------------|-------------------|-------------------|
-------------------|-------------------|-------------------|-------------------|
-------------------|-------------------|-------------------|-------------------|
-------------------|-------------------|-------------------|-------------------|


W W W W
-------------------|-------------------|-------------------|-------------------|
-------------------|-------------------|-------------------|-------------------|
-------------------|-------------------|-------------------|-------------------|
-------------------|-------------------|-------------------|-------------------|
-------------------|-------------------|-------------------|-------------------|
-------------------|-------------------|-------------------|-------------------|


W W W
-------------------|-------------------|-------------------|
-------------------|-------------------|-------------------|
-------------------|-------------------|-------------------|
-------------------|-------------------|-------------------|
-------------------|-------------------|-------------------|
-------------------|-------------------|-------------------|


W W W
|--------------------|--------------------||-------------------|
|--------------------|--------------------||-------------------|
|*-------------------|-------------------*||-------------------|
|*-------------------|-------------------*||-------------------|
|--------------------|--------------------||-------------------|
|--------------------|--------------------||-------------------|


|---3---| |---3---| |---3---| |---3---|
W E E E E E E E E E E E E
-------------------|--19--20--19--17--19--17--15--17--15--13--15--13--|
-------------------|--------------------------------------------------|
-------------------|--------------------------------------------------|
-------------------|--------------------------------------------------|
-------------------|--------------------------------------------------|
-------------------|--------------------------------------------------|


|---3---| |---3---| |---3---| |---3---|
E E E E E E E E E E E E
--12--13--12--10--12--10--------------------------|
--------------------------13--15--13--12--13--12--|
--------------------------------------------------|
--------------------------------------------------|
--------------------------------------------------|
--------------------------------------------------|


|---3---| |---3---| |---3---| |---3---|
E E E E E E E E E E E E
--------------------------------------------------|
--10--12--10--------------------------------------|
--------------12--14--12--10--12--10--------------|
--------------------------------------14--15--14--|
--------------------------------------------------|
--------------------------------------------------|


|---3---| |---3---|
E E E E E E S S S S E E E E E S S Q E E
-------------------------------------------|---------------------------------|
-------------------------------------------|---------------------------------|
-------------------------------------------|---------------------------------|
--12--14--12--10--12--10--9-10-12-9-----9--|--10--12--10--9h-10p-9--------9--|
------------------------------------10-----|--------------------------12-----|
-------------------------------------------|---------------------------------|


\1/
H. Q H. E E H. E E
----------------------------|----------------------|--------------------------|
----------------------------|----------------------|--------------------------|
----------------------------|----------------------|--------------------------|
----------------------------|----------------------|--------------------------|
--12b------------<>12pbr----|--L------------8--10--|--10g12------------L--14--|
----------------------------|----------------------|--------------------------|


|---3---| |---3---| |---3---|
E E E E E E E E E S.S. S
----------------------------------10--12-8--10-|
------------------------------10---------------|
--------------------------12-------------------|
----------12--10--12-