TABULATORS TO GODS OF WAR

Gods of War TAB

Song : Gods Of War
Band : Manowar
Album : Gods Of War (2007)
Tabbed By : The Jahlander 23/2/2007
for the German Defenders of Steel

This is for guide purposes only
This is not an official Jah Nix Productions Release

Listen for rhythms - Another one with two riffs!

DROPPED D
__Bb____F________Bb____F________Bb_____F ________Bb_____F
D-8-----3--3-3-|-8-----3--3-3-|-8------3--3-|-8-----3--3-3-|
A-8-----3--3-3-|-8-----3--3-3-|-8------3--3-|-8-----3--3-3-|
D-8-----3--3-3-|-8-----3--3-3-|-8------3--3-|-8-----3--3-3-| x2

Eb Eb F F
D-1-----1--1-1-|-1-----1--1-1-|-3-----3--3-3-|-3-----3--3-3-|
A-1-----1--1-1-|-1-----1--1-1-|-3-----3--3-3-|-3-----3--3-3-|
D-1-----1--1-1-|-1-----1--1-1-|-3-----3--3-3-|-3-----3--3-3-|

Bb Bb Bb (let ring)
D-8------------|-8------------|-8------------|-(8)----------|
A-8------------|-8------------|-8------------|-(8)----------|
D-8------------|-8------------|-8------------|-(8)----------|

and those little melodic bits (the last one anyway) goes

| Bb |Eb |F |Bb |

about 4 times should do it!
email : nick@jahnixproductions.com
web@ : www.jahnixproductions.com