TABULATORS TO HAND OF DOOM

Should be quite correct now!



W E E E E E E E E E E E E E E E E
E||-------------------|--------------------------|--------------------------|
B||-------------------|--------------------------|--------------------------|
G||-------------------|--------------------------|--------------------------|
D||-------------------|--------------------------|--------------------------|
A||-------------------|--------------------------|--------------------------|
D||-------------------|--0--0--0--0--0--0--0--0--|--0--0--0--0--0--0--0--0--|


E E E E E E E E E E E E E E E E
--------------------------|--------------------------|
--------------------------|--------------------------|
--------------------------|--------------------------|
--------------------------|--------------------------|
--------------------------|--------------------------|
--0--0--0--0--0--0--0--0--|--0--0--0--0--0--0--0--0--|


E E E E E E E E E E E E E E E E
--------------------------|--------------------------|
--------------------------|--------------------------|
--------------------------|--------------------------|
--------------------------|--------------------------|
--------------------------|--------------------------|
--0--0--0--0--0--0--0--0--|--0--0--0--0--0--0--0--0--|


E E E E E E E E E E E E E E E E W
--------------------------|--------------------------|-------------------|
--------------------------|--------------------------|-------------------|
--------------------------|--------------------------|-------------------|
--------------------------|--------------------------|--3----------------|
--------------------------|--------------------------|--1----------------|
--0--0--0--0--0--0--0--0--|--0--0--0--0--0--0--0--0--|-------------------|


W W W W
-------------------|-------------------|-------------------|-------------------|
-------------------|-------------------|-------------------|-------------------|
-------------------|-------------------|-------------------|-------------------|
--2----------------|-------------------|-------------------|--3----------------|
--0----------------|--0----------------|--L----------------|--1----------------|
-------------------|--0----------------|--L----------------|-------------------|


W W W W
-------------------|-------------------|-------------------|-------------------|
-------------------|-------------------|-------------------|-------------------|
-------------------|-------------------|-------------------|-------------------|
-------------------|-------------------|-------------------|--3----------------|
--3----------------|--5----------------|--7----------------|--1----------------|
--3----------------|--5----------------|--7----------------|-------------------|


W W W W
-------------------|-------------------|-------------------|-------------------|
-------------------|-------------------|-------------------|-------------------|
-------------------|-------------------|-------------------|-------------------|
-------------------|--5----------------|--7----------------|--3----------------|
--3----------------|--3----------------|--5----------------|--1----------------|
--3----------------|-------------------|-------------------|-------------------|


|--3--| |--3--| |--3--| |--3--|
W E E E E E E E E E E E E
-------------------|--------------------------------------|
-------------------|--------------------------------------|
-------------------|--------------------------------------|
--5----------------|--------------------------------------|
--3----------------|--------------------------------------|
-------------------|--0--0--0--0--0--0--0--0--0--0--0--0--|


|--3--| |--3--| |--3--| |--3--| |--3--| |--3--|
E E E E E E Q Q E E E E E E E E E E E E
------------------------------|--------------------------------------|
------------------------------|--------------------------------------|
------------------------------|--------------------------------------|
--------------------5----5----|--------------------------------------|
--------------------3----3----|--------------------------------------|
--0--0--0--0--0--0------------|--0--0--0--0--0--0--0--0--0--0--0--0--|


|--3--| |--3--|
E E E E E E Q Q E E E E E E E E
------------------------------|--------------------------|
------------------------------|--------------------------|
------------------------------|--------------------------|
--------------------5----5----|--------------------------|
--------------------3----3----|--------------------------|
--0--0--0--0--0--0------------|--0--0--0--0--0--0--0--0--|


E E E E E E E E E E E E E E E E
--------------------------|--------------------------|
--------------------------|--------------------------|
--------------------------|--------------------------|
--------------------------|--------------------------|
--------------------------|--------------------------|
--0--0--0--0--0--0--0--0--|--0--0--0--0--0--0--0--0--|


E E E E E E E E E E E E E E E E
--------------------------|--------------------------|
--------------------------|--------------------------|
--------------------------|--------------------------|
--------------------------|--------------------------|
--------------------------|--------------------------|
--0--0--0--0--0--0--0--0--|--8--8--8--8--8--8--8--8--|


E E E E E E E E E E E E E E E E
--------------------------|--------------------------|
--------------------------|--------------------------|
--------------------------|--------------------------|
--------------------------|--------------------------|
--------------------------|--------------------------|
--8--8--8--8--8--8--8--8--|--0--0--0--0--0--0--0--0--|


E E E E E E E E E E E E E E E E
--------------------------|--------------------------|
--------------------------|--------------------------|
--------------------------|--------------------------|
--------------------------|--------------------------|
--------------------------|--------------------------|
--0--0--0--0--0--0--0--0--|--0--0--0--0--0--0--0--0--|


E E E E E E E E E E E E E E E E
--------------------------|--------------------------|
--------------------------|--------------------------|
--------------------------|--------------------------|
--------------------------|--------------------------|
--------------------------|--------------------------|
--0--0--0--0--0--0--0--0--|--0--0--0--0--0--0--0--0--|


E E E E E E E E E E E E E E E E
--------------------------|--------------------------|
--------------------------|--------------------------|
--------------------------|--------------------------|
--------------------------|--------------------------|
--------------------------|--------------------------|
--0--0--0--0--0--0--0--0--|--8--8--8--8--8--8--8--8--|


E E E E E E E E E E E E E E E E
--------------------------|--------------------------|
--------------------------|--------------------------|
--------------------------|--------------------------|
--------------------------|--------------------------|
--------------------------|--------------------------|
--8--8--8--8--8--8--8--8--|--0--0--0--0--0--0--0--0--|


E E E E E E E E E E E E E E E E
--------------------------|--------------------------|
--------------------------|--------------------------|
--------------------------|--------------------------|
--------------------------|--------------------------|
--------------------------|--------------------------|
--0--0--0--0--0--0--0--0--|--0--0--0--0--0--0--0--0--|


E E E E E E E E E E E E E E E E
--------------------------|--------------------------|
--------------------------|--------------------------|
--------------------------|--------------------------|
--------------------------|--------------------------|
--------------------------|--------------------------|
--0--0--0--0--0--0--0--0--|--0--0--0--0--0--0--0--0--|


E E E E E E E E E E E E E E E E
--------------------------|--------------------------|
--------------------------|--------------------------|
--------------------------|--------------------------|
--------------------------|--------------------------|
--------------------------|--------------------------|
--0--0--0--0--0--0--0--0--|--8--8--8--8--8--8--8--8--|


E E E E E E E E E E E E E E E E
--------------------------|--------------------------|
--------------------------|--------------------------|
--------------------------|--------------------------|
--------------------------|--------------------------|
--------------------------|--------------------------|
--8--8--8--8--8--8--8--8--|--0--0--0--0--0--0--0--0--|


E E E E E E E E E E E E E E E E
--------------------------|--------------------------|
--------------------------|--------------------------|
--------------------------|--------------------------|
--------------------------|--------------------------|
--------------------------|--------------------------|
--0--0--0--0--0--0--0--0--|--0--0--0--0--0--0--0--0--|


E E E E E E E E E E E E E E E E
--------------------------|--------------------------|
--------------------------|--------------------------|
--------------------------|--------------------------|
--------------------------|--------------------------|
--------------------------|--------------------------|
--0--0--0--0--0--0--0--0--|--0--0--0--0--0--0--0--0--|


E E E E E E E E E E E E E E E E
--------------------------|--------------------------|
--------------------------|--------------------------|
--------------------------|--------------------------|
--------------------------|--------------------------|
--------------------------|--------------------------|
--0--0--0--0--0--0--0--0--|--8--8--8--8--8--8--8--8--|


E E E E E E E E E E E E E E E E
--------------------------|--------------------------|
--------------------------|--------------------------|
--------------------------|--------------------------|
--------------------------|--------------------------|
--------------------------|--------------------------|
--8--8--8--8--8--8--8--8--|--0--0--0--0--0--0--0--0--|


E E E E E E Q W H Q Q
---------------------------|-------------------|---------------------|
---------------------------|-------------------|---------------------|
---------------------------|-------------------|---------------------|
---------------------------|--3----------------|--2------------------|
---------------------------|--1----------------|--0--------3----2----|
--0--0--0--0--0--0--15S----|-------------------|-----------3----2----|


W W W W
-------------------|-------------------|-------------------|-------------------|
-------------------|-------------------|-------------------|-------------------|
-------------------|-------------------|-------------------|-------------------|
-------------------|-------------------|--3----------------|-------------------|
--0----------------|--L----------------|--1----------------|--3----------------|
--0----------------|--L----------------|-------------------|--3----------------|


W W W W
-------------------|-------------------|-------------------|-------------------|
-------------------|-------------------|-------------------|-------------------|
-------------------|-------------------|-------------------|-------------------|
-------------------|-------------------|--3----------------|-------------------|
--5----------------|--7----------------|--1----------------|--3----------------|
--5----------------|--7----------------|-------------------|--3----------------|


W W W W
-------------------|-------------------|-------------------|-------------------|
-------------------|-------------------|-------------------|-------------------|
-------------------|-------------------|-------------------|-------------------|
--5----------------|--7----------------|--3----------------|--5----------------|
--3----------------|--5----------------|--1----------------|--3----------------|
-------------------|-------------------|-------------------|-------------------|


|--3--| |--3--| |--3--| |--3--| |--3--| |--3--|
E E E E E E E E E E E E E E E E E E Q Q
--------------------------------------|------------------------------|
--------------------------------------|------------------------------|
--------------------------------------|------------------------------|
--------------------------------------|--------------------5----5----|
--------------------------------------|--------------------3----3----|
--0--0--0--0--0--0--0--0--0--0--0--0--|--0--0--0--0--0--0------------|


|--3--| |--3--| |--3--| |--3--| |--3--| |--3--|
E E E E E E E E E E E E E E E E E E Q Q
--------------------------------------|------------------------------|
--------------------------------------|------------------------------|
--------------------------------------|------------------------------|
--------------------------------------|--------------------5----5----|
--------------------------------------|--------------------3----3----|
--0--0--0--0--0--0--0--0--0--0--0--0--|--0--0--0--0--0--0------------|


E E E E E E E E E E E E E E E E
--------------------------|--------------------------|
--------------------------|--------------------------|
--------------------------|--------------------------|
--------------------------|--------------------------|
--------------------------|--------------------------|
--0--0--0--0--0--0--0--0--|--0--0--0--0--0--0--0--0--|


E E E E E E E E E E E E E E E E
--------------------------|--------------------------|
--------------------------|--------------------------|
--------------------------|--------------------------|
--------------------------|--------------------------|
--------------------------|--------------------------|
--0--0--0--0--0--0--0--0--|--0--0--0--0--0--0--0--0--|


E E E E E E E E E E E E E E E E
--------------------------|--------------------------|
--------------------------|--------------------------|
--------------------------|--------------------------|
--------------------------|--------------------------|
--------------------------|--------------------------|
--8--8--8--8--8--8--8--8--|--8--8--8--8--8--8--8--8--|


E E E E E E E E E E E E E E E E
--------------------------|--------------------------|
--------------------------|--------------------------|
--------------------------|--------------------------|
--------------------------|--------------------------|
--------------------------|--------------------------|
--0--0--0--0--0--0--0--0--|--0--0--0--0--0--0--0--0--|


E E E E E E E E E E E E E E E E
--------------------------|--------------------------|
--------------------------|--------------------------|
--------------------------|--------------------------|
--------------------------|--------------------------|
--------------------------|--------------------------|
--0--0--0--0--0--0--0--0--|--0--0--0--0--0--0--0--0--|


E E E E E E E E E E E E E E E E
--------------------------|--------------------------|
--------------------------|--------------------------|
--------------------------|--------------------------|
--------------------------|--------------------------|
--------------------------|--------------------------|
--0--0--0--0--0--0--0--0--|--0--0--0--0--0--0--0--0--|


E E E E E E E E E E E E E E E E
--------------------------|--------------------------|
--------------------------|--------------------------|
--------------------------|--------------------------|
--------------------------|--------------------------|
--------------------------|--------------------------|
--8--8--8--8--8--8--8--8--|--8--8--8--8--8--8--8--8--|


E E E E E E E E E E E E E E E E
--------------------------|--------------------------|
--------------------------|--------------------------|
--------------------------|--------------------------|
--------------------------|--------------------------|
--------------------------|--------------------------|
--0--0--0--0--0--0--0--0--|--0--0--0--0--0--0--0--0--|


E E E E E E E E E E E E E E E E
--------------------------|--------------------------|
--------------------------|--------------------------|
--------------------------|--------------------------|
--------------------------|--------------------------|
--------------------------|--------------------------|
--0--0--0--0--0--0--0--0--|--0--0--0--0--0--0--0--0--|


E E E E E E E E E E E E E E E E
--------------------------|--------------------------|
--------------------------|--------------------------|
--------------------------|--------------------------|
--------------------------|--------------------------|
--------------------------|--------------------------|
--0--0--0--0--0--0--0--0--|--0--0--0--0--0--0--0--0--|


E E E E E E E E E E E E E E E E
--------------------------|--------------------------|
--------------------------|--------------------------|
--------------------------|--------------------------|
--------------------------|--------------------------|
--------------------------|--------------------------|
--8--8--8--8--8--8--8--8--|--8--8--8--8--8--8--8--8--|


E E E E E E E E E E E E E E E E
--------------------------|--------------------------|
--------------------------|--------------------------|
--------------------------|--------------------------|
--------------------------|--------------------------|
--------------------------|--------------------------|
--0--0--0--0--0--0--0--0--|--0--0--0--0--0--0--0--0--|


E E E E E E E E E E E E E E E E
--------------------------|--------------------------|
--------------------------|--------------------------|
--------------------------|--------------------------|
--------------------------|--------------------------|
--------------------------|--------------------------|
--0--0--0--0--0--0--0--0--|--0--0--0--0--0--0--0--0--|


E E E E E E E E E E E E E E E E
--------------------------|--------------------------|
--------------------------|--------------------------|
--------------------------|--------------------------|
--------------------------|--------------------------|
--------------------------|--------------------------|
--0--0--0--0--0--0--0--0--|--0--0--0--0--0--0--0--0--|


E E E E E E E E E E E E E E E E
--------------------------|--------------------------|
--------------------------|--------------------------|
--------------------------|--------------------------|
--------------------------|--------------------------|
--------------------------|--------------------------|
--8--8--8--8--8--8--8--8--|--8--8--8--8--8--8--8--8--|


E E E E E E E E E E E E E E Q W
--------------------------|---------------------------|-------------------|
--------------------------|---------------------------|-------------------|
--------------------------|---------------------------|-------------------|
--------------------------|---------------------------|--3----------------|
--------------------------|---------------------------|--1----------------|
--0--0--0--0--0--0--0--0--|--0--0--0--0--0--0--15S----|-------------------|


H Q Q W W
---------------------|-------------------|-------------------|
---------------------|-------------------|-------------------|
---------------------|-------------------|-------------------|
--2------------------|-------------------|-------------------|
--0------------------|--0----------------|--L----------------|
-----------3----2----|--0----------------|--L----------------|


W W W W
-------------------|-------------------|-------------------|-------------------|
-------------------|-------------------|-------------------|-------------------|
-------------------|-------------------|-------------------|-------------------|
--3----------------|-------------------|-------------------|-------------------|
--1----------------|--3----------------|--5----------------|--7----------------|
-------------------|--3----------------|--5----------------|--7----------------|


W W W W
-------------------|-------------------|-------------------|-------------------|
-------------------|-------------------|-------------------|-------------------|
-------------------|-------------------|-------------------|-------------------|
--3----------------|-------------------|--5----------------|--7----------------|
--1----------------|--3----------------|--3----------------|--5----------------|
-------------------|--3----------------|-------------------|-------------------|


|--3--| |--3--| |--3--| |--3--|
W W E E E E E E E E E E E E
-------------------|-------------------|--------------------------------------|
-------------------|-------------------|--------------------------------------|
-------------------|-------------------|--------------------------------------|
--3----------------|--5----------------|--------------------------------------|
--1----------------|--3----------------|--------------------------------------|
-------------------|-------------------|--0--0--0--0--0--0--0--0--0--0--0--0--|


|--3--| |--3--| |--3--| |--3--| |--3--| |--3--|
E E E E E E Q Q E E E E E E E E E E E E
------------------------------|--------------------------------------|
------------------------------|--------------------------------------|
------------------------------|--------------------------------------|
--------------------5----5----|--------------------------------------|
--------------------3----3----|--------------------------------------|
--0--0--0--0--0--0------------|--0--0--0--0--0--0--0--0--0--0--0--0--|


|--3--| |--3--| |--3--| |--3--| |--3--| |--3--|
E E E E E E Q Q E E E E E E E E E E E E
------------------------------|--------------------------------------|
------------------------------|--------------------------------------|
------------------------------|--------------------------------------|
--------------------5----5----|--------------------------------------|
--------------------3----3----|--------------------------------------|
--0--0--0--0--0--0------------|--0--0--0--0--0--0--0--0--0--0--0--0--|


|--3--| |--3--| |--3--| |--3--| |--3--| |--3--|
E E E E E E Q Q E E E E E E E E E E E E
------------------------------|--------------------------------------|
------------------------------|--------------------------------------|
------------------------------|--------------------------------------|
--------------------5----5----|--------------------------------------|
--------------------3----3----|--------------------------------------|
--0--0--0--0--0--0------------|--0--0--0--0--0--0--0--0--0--0--0--0--|


|--3--| |--3--|
E E E E E E Q Q E E E E E E E E
------------------------------|--------------------------|
------------------------------|--------------------------|
------------------------------|--------------------------|
--------------------5----5----|--------------------------|
--------------------3----3----|--------------------------|
--0--0--0--0--0--0------------|--0--0--0--0--0--0--0--0--|


E E E E E E E E E E E E E E E E
--------------------------|--------------------------|
--------------------------|--------------------------|
--------------------------|--------------------------|
--------------------------|--------------------------|
--------------------------|--------------------------|
--0--0--0--0--0--0--0--0--|--0--0--0--0--0--0--0--0--|


E E E E E E E E E E E E E E E E
--------------------------|--------------------------|
--------------------------|--------------------------|
--------------------------|--------------------------|
--------------------------|--------------------------|
--------------------------|--------------------------|
--0--0--0--0--0--0--0--0--|--8--8--8--8--8--8--8--8--|


E E E E E E E E E E E E E E E E
--------------------------|--------------------------|
--------------------------|--------------------------|
--------------------------|--------------------------|
--------------------------|--------------------------|
--------------------------|--------------------------|
--8--8--8--8--8--8--8--8--|--0--0--0--0--0--0--0--0--|


E E E E E E E E E E E E E E E E
--------------------------|--------------------------|
--------------------------|--------------------------|
--------------------------|--------------------------|
--------------------------|--------------------------|
--------------------------|--------------------------|
--0--0--0--0--0--0--0--0--|--0--0--0--0--0--0--0--0--|


E E E E E E E E E E E E E E E E
--------------------------|--------------------------|
--------------------------|--------------------------|
--------------------------|--------------------------|
--------------------------|--------------------------|
--------------------------|--------------------------|
--0--0--0--0--0--0--0--0--|--0--0--0--0--0--0--0--0--|


E E E E E E E E E E E E E E E E
--------------------------|--------------------------|
--------------------------|--------------------------|
--------------------------|--------------------------|
--------------------------|--------------------------|
--------------------------|--------------------------|
--0--0--0--0--0--0--0--0--|--8--8--8--8--8--8--8--8--|


E E E E E E E E E E E E E E E E
--------------------------|--------------------------|
--------------------------|--------------------------|
--------------------------|--------------------------|
--------------------------|--------------------------|
--------------------------|--------------------------|
--8--8--8--8--8--8--8--7--|--0--0--0--0--0--0--0--0--|


E E E E E E E E E E E E E E E E
--------------------------|--------------------------|
--------------------------|--------------------------|
--------------------------|--------------------------|
--------------------------|--------------------------|
--------------------------|--------------------------|
--0--0--0--0--0--0--0--0--|--0--0--0--0--0--0--0--0--|


E E E E E E E E E E E E E E E E
--------------------------|--------------------------|
--------------------------|--------------------------|
--------------------------|--------------------------|
--------------------------|--------------------------|
--------------------------|--------------------------|
--0--0--0--0--0--0--0--0--|--0--0--0--0--0--0--0--0--|


E E E E E E E E E E E E E E E E
--------------------------|--------------------------|
--------------------------|--------------------------|
--------------------------|--------------------------|
--------------------------|--------------------------|
--------------------------|--------------------------|
--0--0--0--0--0--0--0--0--|--8--8--8--8--8--8--8--8--|


E E E E E E E E E E E E E E E E
--------------------------|--------------------------|
--------------------------|--------------------------|
--------------------------|--------------------------|
--------------------------|--------------------------|
--------------------------|--------------------------|
--8--8--8--8--8--8--8--8--|--0--0--0--0--0--0--0--0--|


E E E E E E E E E E E E E E E E
--------------------------|--------------------------|
--------------------------|--------------------------|
--------------------------|--------------------------|
--------------------------|--------------------------|
--------------------------|--------------------------|
--0--0--0--0--0--0--0--0--|--0--0--0--0--0--0--0--0--|


E E E E E E E E E E E E E E E E
--------------------------|--------------------------|
--------------------------|--------------------------|
--------------------------|--------------------------|
--------------------------|--------------------------|
--------------------------|--------------------------|
--0--0--0--0--0--0--0--0--|--0--0--0--0--0--0--0--0--|


E E E E E E E E E E E E E E E E
--------------------------|--------------------------|
--------------------------|--------------------------|
--------------------------|--------------------------|
--------------------------|--------------------------|
--------------------------|--------------------------|
--0--0--0--0--0--0--0--0--|--8--8--8--8--8--8--8--8--|


E E E E E E E E E E E E E E E E
--------------------------|--------------------------|
--------------------------|--------------------------|
--------------------------|--------------------------|
--------------------------|--------------------------|
--------------------------|--------------------------|
--8--8--8--8--8--8--8--8--|--0--0--0--0--0--0--0--0--|


E E E E E E E E W W
--------------------------|-------------------|-------------------|
--------------------------|-------------------|-------------------|
--------------------------|-------------------|-------------------|
--------------------------|--3----------------|--2----------------|
--------------------------|--1----------------|--0----------------|
--0--0--0--0--0--0--0--0--|-------------------|-------------------|


W W W W
-------------------|-------------------|-------------------|-------------------|
-------------------|-------------------|-------------------|-------------------|
-------------------|-------------------|-------------------|-------------------|
-------------------|-------------------|--3----------------|-------------------|
--0----------------|--L----------------|--1----------------|--3----------------|
--0----------------|--L----------------|-------------------|--3----------------|


W W W W
-------------------|-------------------|-------------------|-------------------|
-------------------|-------------------|-------------------|-------------------|
-------------------|-------------------|-------------------|-------------------|
-------------------|-------------------|--3----------------|-------------------|
--5----------------|--7----------------|--1----------------|--3----------------|
--5----------------|--7----------------|-------------------|--3----------------|


W W W W
-------------------|-------------------|-------------------|-------------------|
-------------------|-------------------|-------------------|-------------------|
-------------------|-------------------|-------------------|-------------------|
--5----------------|--7----------------|--3----------------|--5----------------|
--3----------------|--5----------------|--1----------------|--3----------------|
-------------------|-------------------|-------------------|-------------------|


|--3--| |--3--| |--3--| |--3--| |--3--| |--3--|
E E E E E E E E E E E E E E E E E E Q Q
--------------------------------------|------------------------------|
--------------------------------------|------------------------------|
--------------------------------------|------------------------------|
--------------------------------------|--------------------5----5----|
--------------------------------------|--------------------3----3----|
--0--0--0--0--0--0--0--0--0--0--0--0--|--0--0--0--0--0--0------------|


|--3--| |--3--| |--3--| |--3--| |--3--| |--3--|
E E E E E E E E E E E E E E E E E E Q Q
--------------------------------------|------------------------------|
--------------------------------------|------------------------------|
--------------------------------------|------------------------------|
--------------------------------------|--------------------5----5----|
--------------------------------------|--------------------3----3----|
--0--0--0--0--0--0--0--0--0--0--0--0--|--0--0--0--0--0--0------------|


|--3--| |--3--| |--3--| |--3--| |--3--| |--3--|
E E E E E E E E E E E E E E E E E E Q Q
--------------------------------------|------------------------------|
--------------------------------------|------------------------------|
--------------------------------------|------------------------------|
--------------------------------------|--------------------5----5----|
--------------------------------------|--------------------3----3----|
--0--0--0--0--0--0--0--0--0--0--0--0--|--0--0--0--0--0--0------------|


|--3--| |--3--| |--3--| |--3--| |--3--| |--3--|
E E E E E E E E E E E E E E E E E E Q Q
--------------------------------------|------------------------------|
--------------------------------------|------------------------------|
--------------------------------------|------------------------------|
--------------------------------------|--------------------5----5----|
--------------------------------------|--------------------3----3----|
--0--0--0--0--0--0--0--0--0--0--0--0--|--0--0--0--0--0--0------------|


\6
W W W W
-------------------|-------------------|-------------------|-------------------|
-------------------|-------------------|-------------------|-------------------|
-------------------|-------------------|-------------------|-------------------|
--0----------------|--L----------------|--L----------------|--L----------------|
--0----------------|--L----------------|--L----------------|--L----------------|
--0----------------|--L----------------|--L----------------|--L----------------|


W W W W
-------------------|-------------------|-------------------|-------------------|
-------------------|-------------------|-------------------|-------------------|
-------------------|-------------------|-------------------|-------------------|
-------------------|-------------------|-------------------|-------------------|
-------------------|-------------------|-------------------|-------------------|
-------------------|-------------------|-------------------|-------------------|


W W W W
-------------------|-------------------|-------------------|-------------------|
-------------------|-------------------|-------------------|-------------------|
-------------------|-------------------|-------------------|-------------------|
-------------------|-------------------|-------------------|-------------------|
-------------------|-------------------|-------------------|-------------------|
-------------------|-------------------|-------------------|-------------------|


|--3--| |--3--| |--3--| |--3--|
E E E E E E E E E E E E W
--------------------------------------|-------------------|
--------------------------------------|-------------------|
--------------------------------------|-------------------|
--------------------------------------|-------------------|
--------------------------------------|-------------------|
--0--0--0--0--0--0--0--0--0--0--0--0--|-------------------|


|--3--| |--3--| |--3--| |--3--|
E E E E E E E E E E E E W
--------------------------------------|-------------------|
--------------------------------------|-------------------|
--------------------------------------|-------------------|
--------------------------------------|-------------------|
--------------------------------------|-------------------|
--0--0--0--0--0--0--0--0--0--0--0--0--|-------------------|


|--3--| |--3--| |--3--| |--3--|
E E E E E E E E E E E E W
--------------------------------------|-------------------|
--------------------------------------|-------------------|
--------------------------------------|-------------------|
--------------------------------------|-------------------|
--------------------------------------|-------------------|
--8--8--8--8--8--8--8--8--8--8--8--8--|-------------------|


|--3--| |--3--| |--3--| |--3--|
E E E E E E E E E E E E W
--------------------------------------|-------------------|
--------------------------------------|-------------------|
--------------------------------------|-------------------|
--------------------------------------|-------------------|
--------------------------------------|-------------------|
--0--0--0--0--0--0--0--0--0--0--0--0--|-------------------|


|--3--| |--3--| |--3--| |--3--|
E E E E E E E E E E E E W
--------------------------------------|-------------------|
--------------------------------------|-------------------|
--------------------------------------|-------------------|
--------------------------------------|-------------------|
--------------------------------------|-------------------|
--0--0--0--0--0--0--0--0--0--0--0--0--|-------------------|


|--3--| |--3--| |--3--| |--3--|
E E E E E E E E E E E E W
--------------------------------------|-------------------|
--------------------------------------|-------------------|
--------------------------------------|-------------------|
--------------------------------------|-------------------|
--------------------------------------|-------------------|
--0--0--0--0--0--0--0--0--0--0--0--0--|-------------------|


|--3--| |--3--| |--3--| |--3--|
E E E E E E E E E E E E W
--------------------------------------|-------------------|
--------------------------------------|-------------------|
--------------------------------------|-------------------|
--------------------------------------|-------------------|
--------------------------------------|-------------------|
--8--8--8--8--8--8--8--8--8--8--8--8--|-------------------|


|--3--| |--3--| |--3--| |--3--|
E E E E E E E E E E E E W
--------------------------------------|-------------------|
--------------------------------------|-------------------|
--------------------------------------|-------------------|
--------------------------------------|-------------------|
--------------------------------------|-------------------|
--0--0--0--0--0--0--0--0--0--0--0--0--|-------------------|


|--3--| |--3--| |--3--| |--3--|
E E E E E E E E E E E E W
--------------------------------------|-------------------|
--------------------------------------|-------------------|
--------------------------------------|-------------------|
--------------------------------------|-------------------|
--------------------------------------|-------------------|
--0--0--0--0--0--0--0--0--0--0--0--0--|-------------------|


|--3--| |--3--| |--3--| |--3--|
E E E E E E E E E E E E W
--------------------------------------|-------------------|
--------------------------------------|-------------------|
--------------------------------------|-------------------|
--------------------------------------|-------------------|
--------------------------------------|-------------------|
--0--0--0--0--0--0--0--0--0--0--0--0--|-------------------|


|--3--| |--3--| |--3--| |--3--|
E E E E E E E E E E E E W W
--------------------------------------|-------------------|-------------------|
--------------------------------------|-------------------|-------------------|
--------------------------------------|-------------------|-------------------|
--------------------------------------|-------------------|--0----------------|
--------------------------------------|-------------------|--0----------------|
--8--8--8--8--8--8--8--8--8--8--8--8--|-------------------|--0----------------|


W W H Q Q
-------------------|-------------------|---------------------|
-------------------|-------------------|---------------------|
-------------------|-------------------|---------------------|
--L----------------|--3----------------|--2------------------|
--L----------------|--1----------------|--0------------------|
--L----------------|-------------------|-----------3----2----|


W W W W
-------------------|-------------------|-------------------|-------------------|
-------------------|-------------------|-------------------|-------------------|
-------------------|-------------------|-------------------|-------------------|
-------------------|-------------------|--3----------------|-------------------|
--0----------------|--L----------------|--1----------------|--3----------------|
--0----------------|--L----------------|-------------------|--3----------------|


W W W W
-------------------|-------------------|-------------------|-------------------|
-------------------|-------------------|-------------------|-------------------|
-------------------|-------------------|-------------------|-------------------|
-------------------|-------------------|--3----------------|-------------------|
--5----------------|--7----------------|--1----------------|--3----------------|
--5----------------|--7----------------|-------------------|--3----------------|


W W W W
-------------------|-------------------|-------------------|-------------------|
-------------------|-------------------|-------------------|-------------------|
-------------------|-------------------|-------------------|-------------------|
--5----------------|--7----------------|--3----------------|--5----------------|
--3----------------|--5----------------|--1----------------|--3----------------|
-------------------|-------------------|-------------------|-------------------|


W H H W
-------------------|--------------------||--------------------|
-------------------|--------------------||--------------------|
-------------------|--------------------||*-------------------|
--7----------------|--7--------5--------||*--3----------------|
--5----------------|--5--------3--------||---1----------------|
-------------------|--------------------||--------------------|


W W W W
-------------------|-------------------|-------------------|-------------------|
-------------------|-------------------|-------------------|-------------------|
-------------------|-------------------|-------------------|-------------------|
--2----------------|-------------------|-------------------|--3----------------|
--0----------------|--0----------------|--L----------------|--1----------------|
-------------------|--0----------------|--L----------------|-------------------|


W W W W
-------------------|-------------------|-------------------|-------------------|
-------------------|-------------------|-------------------|-------------------|
-------------------|-------------------|-------------------|-------------------|
-------------------|-------------------|-------------------|--3----------------|
--3----------------|--5----------------|--7----------------|--1----------------|
--3----------------|--5----------------|--7----------------|-------------------|


W W W W
-------------------|-------------------|-------------------|-------------------|
-------------------|-------------------|-------------------|-------------------|
-------------------|-------------------|-------------------|-------------------|
-------------------|--5----------------|--7----------------|--3----------------|
--3----------------|--3----------------|--5----------------|--1----------------|
--3----------------|-------------------|-------------------|-------------------|


W W H H
-------------------|-------------------|---------------------||
-------------------|-------------------|---------------------||
-------------------|-------------------|--------------------*||
--5----------------|--7----------------|--7--------5--------*||
--3----------------|--5----------------|--5--------3---------||
-------------------|-------------------|---------------------||


|--3--| |--3--| |--3--| |--3--| |--3--| |--3--|
E E E E E E E E E E E E E E E E E E Q Q
--------------------------------------|------------------------------|
--------------------------------------|------------------------------|
--------------------------------------|------------------------------|
--------------------------------------|--------------------5----5----|
--------------------------------------|--------------------3----3----|
--0--0--0--0--0--0--0--0--0--0--0--0--|--0--0--0--0--0--0------------|


|--3--| |--3--| |--3--| |--3--| |--3--| |--3--|
E E E E E E E E E E E E E E E E E E Q Q
--------------------------------------|------------------------------|
--------------------------------------|------------------------------|
--------------------------------------|------------------------------|
--------------------------------------|--------------------5----5----|
--------------------------------------|--------------------3----3----|
--0--0--0--0--0--0--0--0--0--0--0--0--|--0--0--0--0--0--0------------|


|--3--| |--3--| |--3--| |--3--| |--3--| |--3--|
E E E E E E E E E E E E E E E E E E Q Q
--------------------------------------|------------------------------|
--------------------------------------|------------------------------|
--------------------------------------|------------------------------|
--------------------------------------|--------------------5----5----|
--------------------------------------|--------------------3----3----|
--0--0--0--0--0--0--0--0--0--0--0--0--|--0--0--0--0--0--0------------|


|--3--| |--3--| |--3--| |--3--| |--3--| |--3--|
E E E E E E E E E E E E E E E E E E Q Q
--------------------------------------|------------------------------|
--------------------------------------|------------------------------|
--------------------------------------|------------------------------|
--------------------------------------|--------------------5----5----|
--------------------------------------|--------------------3----3----|
--0--0--0--0--0--0--0--0--0--0--0--0--|--0--0--0--0--0--0------------|


|--3--| |--3--| |--3--| |--3--| |--3--| |--3--|
E E E E E E E E E E E E E E E E E E Q Q
--------------------------------------|------------------------------|
--------------------------------------|------------------------------|
--------------------------------------|------------------------------|
--------------------------------------|--------------------5----5----|
--------------------------------------|--------------------3----3----|
--0--0--0--0--0--0--0--0--0--0--0--0--|--0--0--0--0--0--0------------|


|--3--| |--3--| |--3--| |--3--| |--3--| |--3--|
E E E E E E E E E E E E E E E E E E Q Q
--------------------------------------|------------------------------|
--------------------------------------|------------------------------|
--------------------------------------|------------------------------|
--------------------------------------|--------------------5----5----|
--------------------------------------|--------------------3----3----|
--0--0--0--0--0--0--0--0--0--0--0--0--|--0--0--0--0--0--0------------|


|--3--| |--3--| |--3--| |--3--| |--3--| |--3--|
E E E E E E E E E E E E E E E E E E Q Q
--------------------------------------|------------------------------|
--------------------------------------|------------------------------|
--------------------------------------|------------------------------|
--------------------------------------|--------------------5----5----|
--------------------------------------|--------------------3----3----|
--0--0--0--0--0--0--0--0--0--0--0--0--|--0--0--0--0--0--0------------|


|--3--| |--3--| |--3--| |--3--| |--3--| |--3--|
E E E E E E E E E E E E E E E E E E Q Q
--------------------------------------|------------------------------|
--------------------------------------|------------------------------|
--------------------------------------|------------------------------|
--------------------------------------|--------------------5----5----|
--------------------------------------|--------------------3----3----|
--0--0--0--0--0--0--0--0--0--0--0--0--|--0--0--0--0--0--0------------|


|--3--| |--3--| |--3--| |--3--| |--3--| |--3--|
E E E E E E E E E E E E E E E E E E Q Q
--------------------------------------|------------------------------|
--------------------------------------|------------------------------|
--------------------------------------|------------------------------|
--------------------------------------|--------------------5----5----|
--------------------------------------|--------------------3----3----|
--0--0--0--0--0--0--0--0--0--0--0--0--|--0--0--0--0--0--0------------|


|--3--| |--3--| |--3--| |--3--| |--3--| |--3--|
E E E E E E E E E E E E E E E E E E Q Q
--------------------------------------|------------------------------|
--------------------------------------|------------------------------|
--------------------------------------|------------------------------|
--------------------------------------|--------------------5----5----|
--------------------------------------|--------------------3----3----|
--0--0--0--0--0--0--0--0--0--0--0--0--|--0--0--0--0--0--0------------|


|--3--| |--3--| |--3--| |--3--| |--3--| |--3--|
E E E E E E E E E E E E E E E E E E Q Q
--------------------------------------|------------------------------|
--------------------------------------|------------------------------|
--------------------------------------|------------------------------|
--------------------------------------|--------------------5----5----|
--------------------------------------|--------------------3----3----|
--0--0--0--0--0--0--0--0--0--0--0--0--|--0--0--0--0--0--0------------|


|--3--| |--3--| |--3--| |--3--| |--3--| |--3--|
E E E E E E E E E E E E E E E E E E Q Q
--------------------------------------|------------------------------|
--------------------------------------|------------------------------|
--------------------------------------|------------------------------|
--------------------------------------|--------------------5----5----|
--------------------------------------|--------------------3----3----|
--0--0--0--0--0--0--0--0--0--0--0--0--|--0--0--0--0--0--0------------|


|--3--| |--3--| |--3--| |--3--| |--3--| |--3--|
E E E E E E E E E E E E E E E E E E Q Q
--------------------------------------|------------------------------|
--------------------------------------|------------------------------|
--------------------------------------|------------------------------|
--------------------------------------|--------------------5----5----|
--------------------------------------|--------------------3----3----|
--0--0--0--0--0--0--0--0--0--0--0--0--|--0--0--0--0--0--0------------|


|--3--| |--3--| |--3--| |--3--| |--3--| |--3--|
E E E E E E E E E E E E E E E E E E Q Q
--------------------------------------|------------------------------|
--------------------------------------|------------------------------|
--------------------------------------|------------------------------|
--------------------------------------|--------------------5----5----|
--------------------------------------|--------------------3----3----|
--0--0--0--0--0--0--0--0--0--0--0--0--|--0--0--0--0--0--0------------|


|--3--| |--3--| |--3--| |--3--| |--3--| |--3--|
E E E E E E E E E E E E E E E E E E Q Q
--------------------------------------|------------------------------|
--------------------------------------|------------------------------|
--------------------------------------|------------------------------|
--------------------------------------|--------------------5----5----|
--------------------------------------|--------------------3----3----|
--0--0--0--0--0--0--0--0--0--0--0--0--|--0--0--0--0--0--0------------|


|--3--| |--3--| |--3--| |--3--| |--3--| |--3--|
E E E E E E E E E E E E E E E E E E Q Q
--------------------------------------|------------------------------||
--------------------------------------|------------------------------||
--------------------------------------|------------------------------||
--------------------------------------|--------------------5----5----||
--------------------------------------|--------------------3----3----||
--0--0--0--0--0--0--0--0--0--0--0--0--|--0--0--0--0--0--0------------||




Duration Legend
---------------
W - whole
H - half
Q - quarter
E - 8th
S - 16th
T - 32nd
X - 64th
. - note dotted
|-n-| - n-tuplets


Tablature Legend
----------------
L - tied note
x - dead note
g - grace note
(n) - ghost note
> - accentuded note
NH - natural harmonic
AH - artificial harmonic
TH - tapped harmonic
SH - semi harmonic
PH - pitch harmonic
h - hammer on
p - pull off
b - bend
br - bendRelease
pb - preBend
pbr - preBendRelease
brb - bendReleaseBend
\n/ - tremolo bar dip
\n - tremolo bar dive
-/n - tremolo bar Release up
/n\ - tremolo bar inverted dip
/n - tremolo bar return
-\n - tremolo bar Release down
S - shift slide
s - legato slide
/ - slide into from below or out of upwards
\ - slide into from above or out of downwards
~ - vibrato
W - wide vibrato
tr - trill
TP - tremolo picking
T - tapping
S - slap
P - pop
< - fade in
^ - brush up
v - brush down




Solo Guitar
Should be quite correct now!




W W W
E||-------------------|-------------------|-------------------|
B||-------------------|-------------------|-------------------|
G||-------------------|-------------------|-------------------|
D||-------------------|-------------------|-------------------|
A||-------------------|-------------------|-------------------|
D||-------------------|-------------------|-------------------|


W W W W
-------------------|-------------------|-------------------|-------------------|
-------------------|-------------------|-------------------|-------------------|
-------------------|-------------------|-------------------|-------------------|
-------------------|-------------------|-------------------|-------------------|
-------------------|-------------------|-------------------|-------------------|
-------------------|-------------------|-------------------|-------------------|


W W
-------------------|-------------------|
-------------------|-------------------|
-------------------|-------------------|
-------------------|-------------------|
-------------------|-------------------|
-------------------|-------------------|


It's not quite clear what he's doing, but it should
|------------------------3------------------------| |---3---| |----------
E E E E E E E E
--13----------------------------------------------------------------13----------
------------------------------------------------15--------------15------15------
----------------------------------------------------14------14------------------
--------------------------------------------------------15----------------------
--------------------------------------------------------------------------------
--------------------------------------------------------------------------------


|---3---| |---3---| |---3---| |---3---|
E E E E E E E E E E E E
--12----------------------12----------------------|
------14--------------14------14--------------14--|
----------14------14--------------14------14------|
--------------14----------------------14----------|
--------------------------------------------------|
--------------------------------------------------|


|---3---| |---3---| |---3---| |---3---|
E E E E E E E E E E E E
------13----------------------15------------------|
--15------15--------------15------15--------------|
--------------14------14--------------14------14--|
------------------15----------------------15------|
--------------------------------------------------|
--------------------------------------------------|


|---3---| |---3---|
E E E E E E H
------13-----------------------------|
--15------15--13---------------------|
------------------14--12-------------|
--------------------------15~--------|
-------------------------------------|
-------------------------------------|


|---3---| |---3---| |---3---| |---3---|
E E E E E E E E E E E E
--------------------------------------------------|
--15----------------------15----------------------|
------17--------------17------17--------------14--|
----------19------19--------------19------17------|
--------------20----------------------17----------|
--------------------------------------------------|


|---3---| |---3---| |---3---| |---3---|
E E E E E E E E E E E E
--------------------------------------------------|
--13----------------------13----------------------|
------14--------------14------14--------------14--|
----------17------17--------------17------17------|
--------------17----------------------17----------|
--------------------------------------------------|


|---3---| |---3---| |---3---| |---3---|
E E E E E E E E E E E E
--------------------------------------------------|
--15----------------------15----------------------|
------16--------------16------16--------------16--|
----------19--17--19--------------19--17--19------|
--------------------------------------------------|
--------------------------------------------------|


Don't pick!
|---3---| |---3---|
E E E E E E Q Q
--12----------------------12~----12\---------|
------14--------------14---------------------|
----------14------14-------------------------|
--------------14-----------------------------|
---------------------------------------------|
---------------------------------------------|


|---3---| |---3---|
E S S S S S S E E E E E E
-----------------------------15--17--------------|
--/18--18-17-18-17-15-17-18----------18--17--15--|
-------------------------------------------------|
-------------------------------------------------|
-------------------------------------------------|
-------------------------------------------------|


|---3---|
E S. S. S S S S T S S S. S S E
----------------------------------------------------|
--15b--13----12-13h-15p-13-15-13p-12p-10-12p-10p-8--|
----------14----------------------------------------|
----------------------------------------------------|
----------------------------------------------------|
----------------------------------------------------|


\3
S S S S S E E S S S S S S S W
--------------------------------------------------|--------------------|
--10----------------------------------------------|--------------------|
-----12p-10p-9-12h-14-----10h-12p-10p-9-12p-10p-9-|--------------------|
--------------------------------------------------|--12----------------|
--------------------------------------------------|--------------------|
--------------------------------------------------|--------------------|


SH SH SH
|-------3-------|
Q E E Q Q Q
----------------------------------------|
----------------------------------------|
----------------------------------------|
--12----10------<>10----<>10------------|
------------12------------------<>12----|
----------------------------------------|


SH SH SH SH SH SH \5
|------3------| |------3------|
Q Q Q Q Q Q W