TABULATORS TO HEART OF STEEL

Transcribed by HeXa(Heikki.Mustonen@kymp.net)
THANX TO MANOEL

Standard Tuning

This is a quite short solo ...but still a solo ...

|-------------------------17(19)-br-17-15-14---------------------------------|
|-17(19)-17(19)-17(19)-----------------------17-15-14------------------------|
|-----------------------------------------------------16(18)-br-16----16-----|
|------------------------------------------------------------------18--------|
|----------------------------------------------------------------------------|
|----------------------------------------------------------------------------|

|-------P.H-P.H---------|----------------------------------------------------|
|-3~--2-----------------|----------------------------------------------------|
|-------4-2-------------|-------------5--------------------------------------|
|-----------4-2---------|---------5-7---7-5----------------------------------|
|---------------4-2--0\-|-----5-7------------7-6-5-3-------------------------|
|-----------------------|-5-7------------------------5-3-3-------------------|