TABULATORS TO HOLY WAR

W
E||---------------------|-------|-------|-------|-------|-------|-------|
B||---------------------|-------|-------|-------|-------|-------|-------|
G||---------------------|-------|-------|-------|-------|-------|-------|
D||---------------------|-------|-------|-------|-------|-------|-------|
A||---------------------|-------|-------|-------|-------|-------|-------|
E||---------------------|-------|-------|-------|-------|-------|-------|


-------|-------|-------|-------|-------|-------|-------|-------|-------|-------|
-------|-------|-------|-------|-------|-------|-------|-------|-------|-------|
-------|-------|-------|-------|-------|-------|-------|-------|-------|-------|
-------|-------|-------|-------|-------|-------|-------|-------|-------|-------|
-------|-------|-------|-------|-------|-------|-------|-------|-------|-------|
-------|-------|-------|-------|-------|-------|-------|-------|-------|-------|


-------|-------|-------|-------|-------|-------|-------|-------|-------|-------|
-------|-------|-------|-------|-------|-------|-------|-------|-------|-------|
-------|-------|-------|-------|-------|-------|-------|-------|-------|-------|
-------|-------|-------|-------|-------|-------|-------|-------|-------|-------|
-------|-------|-------|-------|-------|-------|-------|-------|-------|-------|
-------|-------|-------|-------|-------|-------|-------|-------|-------|-------|


H H Q Q H
-------|-------|-------|-------|--------------------|---------------------|
-------|-------|-------|-------|--------------------|---------------------|
-------|-------|-------|-------|--------------------|------------4--------|
-------|-------|-------|-------|--2--------3--------|--5----7----4--------|
-------|-------|-------|-------|--2--------3--------|--5----7----2--------|
-------|-------|-------|-------|--0--------1--------|--3----5-------------|


W W W
-------------------|-------------------|-------------------|
-------------------|-------------------|-------------------|
--9----------------|--5----------------|-------------------|
--9----------------|--5----------------|--5----------------|
--7----------------|--3----------------|--5----------------|
-------------------|-------------------|--3----------------|


H Q Q H H H Q E E
---------------------|--------------------|----------------------|
---------------------|--------------------|----------------------|
--4-------------7----|-----------5--------|--4-------------9--7--|
--4--------4----7----|--2--------5--------|--4--------2----9--7--|
--2--------2----5----|--2--------3--------|--2--------2----7--5--|
---------------------|--0-----------------|-----------0----------|


H H H Q E E H H
--------------------|----------------------|--------------------|
--------------------|----------------------|--------------------|
-----------5--------|--4-------------9--7--|-----------5--------|
--2--------5--------|--4--------2----9--7--|--2--------5--------|
--2--------3--------|--2--------2----7--5--|--2--------3--------|
--0-----------------|-----------0----------|--0-----------------|


H Q E E H H H H
----------------------|--------------------|--------------------|-------|
----------------------|--------------------|--------------------|-------|
--4-------------9--7--|-----------5--------|--4-----------------|-------|
--4--------2----9--7--|--2--------5--------|--4-----------------|-------|
--2--------2----7--5--|--2--------3--------|--2-----------------|-------|
-----------0----------|--0-----------------|--------------------|-------|


-------|-------|-------|-------|-------|-------|-------|-------|-------|-------|
-------|-------|-------|-------|-------|-------|-------|-------|-------|-------|
-------|-------|-------|-------|-------|-------|-------|-------|-------|-------|
-------|-------|-------|-------|-------|-------|-------|-------|-------|-------|
-------|-------|-------|-------|-------|-------|-------|-------|-------|-------|
-------|-------|-------|-------|-------|-------|-------|-------|-------|-------|


H H
-------|-------|-------|-------|-------|-------|-------|--------------------|
-------|-------|-------|-------|-------|-------|-------|--------------------|
-------|-------|-------|-------|-------|-------|-------|--------------------|
-------|-------|-------|-------|-------|-------|-------|--2--------3--------|
-------|-------|-------|-------|-------|-------|-------|--2--------3--------|
-------|-------|-------|-------|-------|-------|-------|--0--------1--------|


Q Q H W W
---------------------|-------------------|-------------------|
---------------------|-------------------|-------------------|
------------4--------|--9----------------|--5----------------|
--5----7----4--------|--9----------------|--5----------------|
--5----7----2--------|--7----------------|--3----------------|
--3----5-------------|-------------------|-------------------|


W H Q Q H H
-------------------|---------------------|--------------------|
-------------------|---------------------|--------------------|
-------------------|--4-------------7----|-----------5--------|
--5----------------|--4--------4----7----|--2--------5--------|
--5----------------|--2--------2----5----|--2--------3--------|
--3----------------|---------------------|--0-----------------|


H Q E E H H H Q E E
----------------------|--------------------|----------------------|
----------------------|--------------------|----------------------|
--4-------------9--7--|-----------5--------|--4-------------9--7--|
--4--------2----9--7--|--2--------5--------|--4--------2----9--7--|
--2--------2----7--5--|--2--------3--------|--2--------2----7--5--|
-----------0----------|--0-----------------|-----------0----------|


H H H Q E E H H
--------------------|----------------------|--------------------|
--------------------|----------------------|--------------------|
-----------5--------|--4-------------9--7--|-----------5--------|
--2--------5--------|--4--------2----9--7--|--2--------5--------|
--2--------3--------|--2--------2----7--5--|--2--------3--------|
--0-----------------|-----------0----------|--0-----------------|


H H Q E T T T Q S S T T T T T
--------------------|-----------------------------------|
--------------------|-----------------------------------|
--4-----------------|--4----L--4-4-4-4------------------|
--4-----------------|-----------------------------------|
--2-----------------|-----------------------------------|
--------------------|-----------------------------------|


E E S S S S S S S S S S S S T T T Q Q S T T T T T T T S T T
--------------------------------|----------------------------------------|
--------------------------------|----------------------------------------|
--------4---5---7---5---4-------|--5-5-5-5-----------------------7-7-7-7-|
--------------------------------|----------------------------------------|
--------------------------------|----------------------------------------|
--------------------------------|----------------------------------------|


T T T E T T T E T T T E T T T Q
------------------------------------------------|
-----------5-5-5-5--10-10-10-10--13-13-13-13----|
--7---------------------------------------------|
------------------------------------------------|
------------------------------------------------|
------------------------------------------------|


E S S S S S T T T T S T T T T S S S S
-------12--------------12--------------12--------------12-------|
--15b-----15-12----15b----15-12----15b----15-12----15b----15-12-|
----------------14--------------14--------------14--------------|
----------------------------------------------------------------|
----------------------------------------------------------------|
----------------------------------------------------------------|


TP TP TP TP TP TP TP TP TP TP
E E E S S S S S S S S S S E E E E E E E E
--13--15--17--17-15----------15-17-------|--15--17--19--20--19--17--15--17--|
--------------------18-17-18-------------|----------------------------------|
-----------------------------------------|----------------------------------|
-----------------------------------------|----------------------------------|
-----------------------------------------|----------------------------------|
-----------------------------------------|----------------------------------|


Q Q H
--19b----19b----17--------|
--------------------------|
--------------------------|
--------------------------|
--------------------------|
--------------------------|


T T T T T T T T
T T T T T T T T T T T T T T T T T T T T T T T
--12p-10p-7-12p-10p-7-12p-10p-7-12p-10p-7-12p-10p-7-12p-10p-7-12p-10p-7-12p-10p-
--------------------------------------------------------------------------------
--------------------------------------------------------------------------------
--------------------------------------------------------------------------------
--------------------------------------------------------------------------------
--------------------------------------------------------------------------------


T T T T T T T T T T T T T T T T T T T T T T T T T T
--15-12----15-12----15-12----15-12----15-12----15-12----15-12----15-12----15-12-
--------15-------15-------15-------15-------15-------15-------15-------15-------
--------------------------------------------------------------------------------
--------------------------------------------------------------------------------
--------------------------------------------------------------------------------
--------------------------------------------------------------------------------


S S S S S S S S S S S S S S S S
------17-----17-----17-----17-----17-----17-----17-----17-|
--20b----20b----20b----20b----20b----20b----20b----20b----|
----------------------------------------------------------|
----------------------------------------------------------|
----------------------------------------------------------|
----------------------------------------------------------|


S S S S S S S S S Q E S
------17-----17-----17-----17-----17b---------|
--20b----20b----20b----20b----20b-------------|
----------------------------------------------|
----------------------------------------------|
----------------------------------------------|
----------------------------------------------|


PH PH PH PH
S S S E S S S E E Q
-------------------------------------------|
-------------------------------------------|
--2b-2b-2b-2--<>2b-<>2b-<>2b----<>2b-------|
--------------------------------------2----|
-------------------------------------------|
-------------------------------------------|


PH PH PH PH PH tr
E E E E E E T E S T
---------------------------------------------|
---------------------------------------------|
------------------------------5(4)--5--------|
--<>3--<>3b--<>3--<>3b--<>5b----------3------|
---------------------------------------------|
---------------------------------------------|


T T T T T T T T T T
T T T T T T T T T T T T T T T T T T T T T T T T T T T T T
--------------------------------------------------------------------------------
--------------------------------------------------------------------------------
--7p-5p-4-7p-5p-4-7p-5p-4-7p-5p-4-7p-5p-4-9p-7p-5-9p-7p-5-9p-7p-5-9p-7p-5-9p-7p-
--------------------------------------------------------------------------------
--------------------------------------------------------------------------------
--------------------------------------------------------------------------------


T T T T T T T
Q T T T T T T T T T T T T T T T T T T T T
--------17p-15p-12-17p-15p-12-17p-15p-12-17p-15p-12-17p-15p-12-17p-15p-12-17p-15
--------------------------------------------------------------------------------
--7\----------------------------------------------------------------------------
--------------------------------------------------------------------------------
--------------------------------------------------------------------------------
--------------------------------------------------------------------------------


TP
H S S S S S S E
--12--------15-12----15-12----15b--|
------------------15-------15------|
-----------------------------------|
-----------------------------------|
-----------------------------------|
-----------------------------------|


T T T T T T T T T T T T T T T T T T T T T T T T T T
--19-15----19-15----19-15----20-17-19-17-20-17-19-19-15-17-19-15----19-15----20-
--------17-------17-------17-------------------------------------17-------17----
--------------------------------------------------------------------------------
--------------------------------------------------------------------------------
--------------------------------------------------------------------------------
--------------------------------------------------------------------------------


E S S T T T T T T T T T T T T T T T T T T T T S S
--22b--15-12----15-12----15-12----17-12----20-19-15-12----15-12----15-12----15-|
-------------15-------15-------15-------15-------------12-------12-------12----|
-------------------------------------------------------------------------------|
-------------------------------------------------------------------------------|
-------------------------------------------------------------------------------|
-------------------------------------------------------------------------------|


TP TP
T T T T T T T T H S S S S H H
--17-22-20-19-19-20-17-19-22b--------------L-|--12--------13--------|
---------------------------------------------|----------------------|
---------------------------------------------|----------------------|
---------------------------------------------|---2---------3--------|
---------------------------------------------|---2---------3--------|
---------------------------------------------|---0---------1--------|


TP TP TP
Q Q H W W
--15----17----19--------|-------------------|-------------------|
------------------------|-------------------|-------------------|
---------------4--------|--9----------------|--5----------------|
---5-----7-----4--------|--9----------------|--5----------------|
---5-----7-----2--------|--7----------------|--3----------------|
---3-----5--------------|-------------------|-------------------|


W H Q Q H H
-------------------|---------------------|--------------------|
-------------------|---------------------|--------------------|
-------------------|--4-------------7----|-----------5--------|
--5----------------|--4--------4----7----|--2--------5--------|
--5----------------|--2--------2----5----|--2--------3--------|
--3----------------|---------------------|--0-----------------|


H Q E E H H H Q E E
----------------------|--------------------|----------------------|
----------------------|--------------------|----------------------|
--4-------------9--7--|-----------5--------|--4-------------9--7--|
--4--------2----9--7--|--2--------5--------|--4--------2----9--7--|
--2--------2----7--5--|--2--------3--------|--2--------2----7--5--|
-----------0----------|--0-----------------|-----------0----------|


H H H Q E E H H
--------------------|----------------------|--------------------|
--------------------|----------------------|--------------------|
-----------5--------|--4-------------9--7--|-----------5--------|
--2--------5--------|--4--------2----9--7--|--2--------5--------|
--2--------3--------|--2--------2----7--5--|--2--------3--------|
--0-----------------|-----------0----------|--0-----------------|


H Q E E H H H Q E E
----------------------|--------------------|----------------------|
----------------------|--------------------|----------------------|
--4-------------9--7--|-----------5--------|--4-------------9--7--|
--4--------2----9--7--|--2--------5--------|--4--------2----9--7--|
--2--------2----7--5--|--2--------3--------|--2--------2----7--5--|
-----------0----------|--0-----------------|-----------0----------|


H H H Q E E H H
--------------------|----------------------|--------------------|
--------------------|----------------------|--------------------|
-----------5--------|--4-------------9--7--|-----------5--------|
--2--------5--------|--4--------2----9--7--|--2--------5--------|
--2--------3--------|--2--------2----7--5--|--2--------3--------|
--0-----------------|-----------0----------|--0-----------------|


H Q E E H H H Q E E
----------------------|--------------------|----------------------|
----------------------|--------------------|----------------------|
--4-------------9--7--|-----------5--------|--4-------------9--7--|
--4--------2----9--7--|--2--------5--------|--4--------2----9--7--|
--2--------2----7--5--|--2--------3--------|--2--------2----7--5--|
-----------0----------|--0-----------------|-----------0----------|


H H H H
--------------------|--------------------|-----------||
--------------------|--------------------|-----------||
-----------5--------|--4-----------------|-----------||
--2--------5--------|--4-----------------|-----------||
--2--------3--------|--2-----------------|-----------||
--0-----------------|--------------------|-----------||




Duration Legend
---------------
W - whole
H - half
Q - quarter
E - 8th
S - 16th
T - 32nd
X - 64th
. - note dotted
|-n-| - n-tuplets


Tablature Legend
----------------
L - tied note
x - dead note
g - grace note
(n) - ghost note
> - accentuded note
NH - natural harmonic
AH - artificial harmonic
TH - tapped harmonic
SH - semi harmonic
PH - pitch harmonic
h - hammer on
p - pull off
b - bend
br - bendRelease
pb - preBend
pbr - preBendRelease
brb - bendReleaseBend
\n/ - tremolo bar dip
\n - tremolo bar dive
-/n - tremolo bar Release up
/n\ - tremolo bar inverted dip
/n - tremolo bar return
-\n - tremolo bar Release down
S - shift slide
s - legato slide
/ - slide into from below or out of upwards
\ - slide into from above or out of downwards
~ - vibrato
W - wide vibrato
tr - trill
TP - tremolo picking
T - tapping
S - slap
P - pop
< - fade in
^ - brush up
v - brush down