TABULATORS TO HOUSE OF DEATH

S S S S S S S S S S S S S S S S
D||-------|----------------------------------|
A||-------|----------------------------------|
F||-------|--2-0-2-0-2-0-2-0-2-0-2-0-2-0-2-0-|
C||-------|--5-L-L-L-L-L-L-L-L-L-L-L-L-L-L-L-|
G||-------|--3-L-L-L-L-L-L-L-L-L-L-L-L-L-L-L-|
D||-------|----------------------------------|


S S S S S S S S S S S S S S S S S S S S S S S S S S S S S S S S
----------------------------------|----------------------------------|
----------------------------------|----------------------------------|
--5-4-5-4-5-4-5-4-5-4-5-4-5-4-5-4-|--7-5-7-5-7-5-7-5-7-5-7-5-7-5-7-5-|
--L-L-L-L-L-L-L-L-L-L-L-L-L-L-L-L-|--L-L-L-L-L-L-L-L-L-L-L-L-L-L-L-L-|
--L-L-L-L-L-L-L-L-L-L-L-L-L-L-L-L-|--L-L-L-L-L-L-L-L-L-L-L-L-L-L-L-L-|
----------------------------------|----------------------------------|


W S S S S S S S S S S S S S S S S
--------------------|----------------------------------|
--------------------|----------------------------------|
--5~----------------|--4-2-4-2-4-2-4-2-4-2-4-2-4-2-4-2-|
--L-----------------|----------------------------------|
--L-----------------|----------------------------------|
--------------------|----------------------------------|


S S S S S S S S S S S S S S S S S S S S S S S S S S S S S S S S
----------------------------------|----------------------------------|
----------------------------------|----------------------------------|
--7-6-7-6-7-6-7-6-7-6-7-6-7-6-7-6-|--9-7-9-7-9-7-9-7-9-7-9-7-9-7-9-7-|
----------------------------------|----------------------------------|
----------------------------------|----------------------------------|
----------------------------------|----------------------------------|


W W W W
-------------------|-------------------|-------------------|-------------------|
-------------------|-------------------|-------------------|-------------------|
--7----------------|-------------------|-------------------|-------------------|
-------------------|--9----------------|--L----------------|--L----------------|
-------------------|--7----------------|--L----------------|--L----------------|
-------------------|--0----------------|--L----------------|--L----------------|


W
-------------------|-------------------|-------------------|
-------------------|-------------------|-------------------|
-------------------|-------------------|-------------------|
--L----------------|-------------------|-------------------|
--L----------------|-------------------|-------------------|
--L----------------|-------------------|-------------------|


E S S S S S S E Q E E S S S S S S E Q E
----------------------------|----------------------------|
----------------------------|----------------------------|
----------------------------|----------------------------|
--9-----------------9----7--|--9-----------------9----7--|
--7-----------------7----5--|--7-----------------7----5--|
-----0-0-0-0-0-0-0----------|-----0-0-0-0-0-0-0----------|


E S S S S S S E Q E W E S S S S S S E Q E
----------------------------|-------------------|----------------------------|
----------------------------|-------------------|----------------------------|
----------------------------|-------------------|----------------------------|
--9-----------------9----7--|--5----------------|--9-----------------9----7--|
--7-----------------7----5--|--3----------------|--7-----------------7----5--|
-----0-0-0-0-0-0-0----------|-------------------|-----0-0-0-0-0-0-0----------|


E S S S S S S E Q E E S S S S S S E Q E W
----------------------------|----------------------------|-------------------|
----------------------------|----------------------------|-------------------|
----------------------------|----------------------------|-------------------|
--9-----------------9----7--|--9-----------------9----7--|--5----------------|
--7-----------------7----5--|--7-----------------7----5--|--3----------------|
-----0-0-0-0-0-0-0----------|-----0-0-0-0-0-0-0----------|-------------------|


W W W
|--------------------|-------------------|-------------------|
|--------------------|-------------------|-------------------|
|*-------------------|-------------------|-------------------|
|*--2----------------|--L----------------|--5----------------|
|---2----------------|--L----------------|--3----------------|
|---0----------------|--L----------------|-------------------|


W W W
--------------------||--------------------|-------------------|
--------------------||--------------------|-------------------|
-------------------*||*-------------------|-------------------|
--L----------------*||*--2----------------|--L----------------|
--L-----------------||---2----------------|--L----------------|
--------------------||---0----------------|--L----------------|


W H H E S S S S S S E Q E
-------------------|---------------------||-----------------------------|
-------------------|---------------------||-----------------------------|
-------------------|-----------7--------*||*----------------------------|
--5----------------|--4--------5--------*||*--9-----------------9----7--|
--3----------------|--5------------------||---7-----------------7----5--|
-------------------|---------------------||------0-0-0-0-0-0-0----------|


E S S S S S S E Q E E S S S S S S E Q E W
----------------------------|----------------------------|--------------------||
----------------------------|----------------------------|--------------------||
----------------------------|----------------------------|-------------------*||
--9-----------------9----7--|--9-----------------9----7--|--5----------------*||
--7-----------------7----5--|--7-----------------7----5--|--3-----------------||
-----0-0-0-0-0-0-0----------|-----0-0-0-0-0-0-0----------|--------------------||


W W W
-------------------|-------------------||--------------------|
-------------------|-------------------||--------------------|
-------------------|-------------------||*-------------------|
--2----------------|--L----------------||*--2----------------|
--2----------------|--L----------------||---2----------------|
--0----------------|-------------------||---0----------------|


W W W
-------------------|-------------------|--------------------||
-------------------|-------------------|--------------------||
-------------------|-------------------|-------------------*||
--L----------------|--5----------------|--L----------------*||
--L----------------|--3----------------|--L-----------------||
--L----------------|-------------------|--------------------||


W W W
--------------------|-------------------|-------------------|
--------------------|-------------------|-------------------|
*-------------------|-------------------|-------------------|
*--2----------------|--L----------------|--5----------------|
---2----------------|--L----------------|--3----------------|
---0----------------|--L----------------|-------------------|


H H E S S S S S S E Q E
---------------------||-----------------------------|
---------------------||-----------------------------|
-----------7--------*||*----------------------------|
--4--------5--------*||*--9-----------------9----7--|
--5------------------||---7-----------------7----5--|
---------------------||------0-0-0-0-0-0-0----------|


E S S S S S S E Q E E S S S S S S E Q E W
----------------------------|----------------------------|--------------------||
----------------------------|----------------------------|--------------------||
----------------------------|----------------------------|-------------------*||
--9-----------------9----7--|--9-----------------9----7--|--5----------------*||
--7-----------------7----5--|--7-----------------7----5--|--3-----------------||
-----0-0-0-0-0-0-0----------|-----0-0-0-0-0-0-0----------|--------------------||


Acoustic Part ?? SOLO
W W W W
-------------------|-------------------|-------------------|-------------------|
-------------------|-------------------|-------------------|-------------------|
-------------------|-------------------|-------------------|-------------------|
-------------------|-------------------|-------------------|-------------------|
-------------------|-------------------|-------------------|-------------------|
-------------------|-------------------|-------------------|-------------------|


W W W W
-------------------|-------------------|-------------------|-------------------|
-------------------|-------------------|-------------------|-------------------|
-------------------|-------------------|-------------------|-------------------|
-------------------|-------------------|-------------------|-------------------|
-------------------|-------------------|-------------------|-------------------|
-------------------|-------------------|-------------------|-------------------|


W W W W
-------------------|-------------------|-------------------|-------------------|
-------------------|-------------------|-------------------|-------------------|
-------------------|-------------------|-------------------|-------------------|
-------------------|-------------------|-------------------|-------------------|
-------------------|-------------------|-------------------|-------------------|
-------------------|-------------------|-------------------|-------------------|


W W W W
-------------------|-------------------|-------------------|-------------------|
-------------------|-------------------|-------------------|-------------------|
-------------------|-------------------|-------------------|-------------------|
-------------------|-------------------|-------------------|-------------------|
-------------------|-------------------|-------------------|-------------------|
-------------------|-------------------|-------------------|-------------------|


W W W
-------------------|-------------------|-------------------|
-------------------|-------------------|-------------------|
-------------------|-------------------|-------------------|
-------------------|-------------------|-------------------|
-------------------|-------------------|-------------------|
-------------------|-------------------|-------------------|


E S S S S S S E Q E E S S S S S S E Q E
|-----------------------------|----------------------------|
|-----------------------------|----------------------------|
|*----------------------------|----------------------------|
|*--9-----------------9----7--|--9-----------------9----7--|
|---7-----------------7----5--|--7-----------------7----5--|
|------0-0-0-0-0-0-0----------|-----0-0-0-0-0-0-0----------|


E S S S S S S E Q E W 12x
----------------------------|--------------------||-------------------||
----------------------------|--------------------||-------------------||
----------------------------|-------------------*||-------------------||
--9-----------------9----7--|--5----------------*||-------------------||
--7-----------------7----5--|--3-----------------||-------------------||
-----0-0-0-0-0-0-0----------|--------------------||-------------------||




Duration Legend
---------------
W - whole
H - half
Q - quarter
E - 8th
S - 16th
T - 32nd
X - 64th
. - note dotted
|-n-| - n-tuplets


Tablature Legend
----------------
L - tied note
x - dead note
g - grace note
(n) - ghost note
> - accentuded note
NH - natural harmonic
AH - artificial harmonic
TH - tapped harmonic
SH - semi harmonic
PH - pitch harmonic
h - hammer on
p - pull off
b - bend
br - bendRelease
pb - preBend
pbr - preBendRelease
brb - bendReleaseBend
\n/ - tremolo bar dip
\n - tremolo bar dive
-/n - tremolo bar Release up
/n\ - tremolo bar inverted dip
/n - tremolo bar return
-\n - tremolo bar Release down
S - shift slide
s - legato slide
/ - slide into from below or out of upwards
\ - slide into from above or out of downwards
~ - vibrato
W - wide vibrato
tr - trill
TP - tremolo picking
T - tapping
S - slap
P - pop
< - fade in
^ - brush up
v - brush down