TABULATORS TO HYMN OF THE IMMORTAL WARRIORS

Created by Bumblebee

Spur 1
E E E E E E E E E E E E E E E E
D||---------------------------|--------------------------|
A||---1--------1--------1-----|--1--------1--------1-----|
F||*-----2--------2--------2--|-----2--------2--------2--|
C||*--------2--------2--------|--------2--------2--------|
G||---------------------------|--------------------------|
D||---------------------------|--------------------------|


E E E E E E E E E E E E E E E E
--------------------------|--------------------------|
--3--------3--------3-----|--3--------3--------3-----|
-----2--------2--------2--|-----2--------2--------2--|
--------3--------3--------|--------3--------3--------|
--------------------------|--------------------------|
--------------------------|--------------------------|


E E E E E E E E E E E E E E E E
--------------------------|--------------------------|
--0--------0--------0-----|--0--------0--------0-----|
-----1--------1--------1--|-----1--------1--------1--|
--------2--------2--------|--------2--------2--------|
--------------------------|--------------------------|
--------------------------|--------------------------|


E E E E E E E E E E E E E E E E 4x
--------------------------|---------------------------||
--1--------1--------1-----|--1--------1--------1------||
-----2--------2--------2--|-----2--------2--------2--*||
--------2--------2--------|--------2--------2--------*||
--------------------------|---------------------------||
--------------------------|---------------------------||


E E E E E E E E E E E E E E E E
--------------0-----------|--------------3-----------|
-----------1-----1--------|-----------3-----3--------|
--------0-----------0-----|--------0-----------0-----|
-----2-----------------2--|-----0-----------------0--|
--3-----------------------|--2-----------------------|
--------------------------|--------------------------|


couldn't figure out that fuckin chord
E E E E E E E E
-------------------------------------------------0-----------|
----------------------------------------------0-----0--------|
-------------------------------------------0-----------0-----|
----------------------------------------2-----------------2--|
-------------------------------------------------------------|
--0----------------------------------------------------------|


E E E E E E E E E E E E E E E E
--------------0-----------|--------------0-----------|
-----------1-----1--------|-----------1-----1--------|
--------2-----------2-----|--------0-----------0-----|
-----2-----------------2--|-----2-----------------2--|
--0-----------------------|--3-----------------------|
--------------------------|--------------------------|


E E E E E E E E E E E E E E E E
--------------3-----------|--------------0-----------|
-----------3-----3--------|-----------1-----1--------|
--------0-----------0-----|--------2-----------2-----|
-----0-----------------0--|-----2-----------------2--|
--2-----------------------|--0-----------------------|
--------------------------|--------------------------|


E E E E E E E E E E E E E E E E
--------------0-----------|--------------0-----------|
-----------1-----1--------|-----------1-----1--------|
--------2-----------2-----|--------0-----------0-----|
-----2-----------------2--|-----2-----------------2--|
--0-----------------------|--3-----------------------|
--------------------------|--------------------------|


E E E E E E E E E E E E E E E E
--------------3-----------|--------------0-----------|
-----------3-----3--------|-----------1-----1--------|
--------0-----------0-----|--------2-----------2-----|
-----0-----------------0--|-----2-----------------2--|
--------------------------|--0-----------------------|
--3-----------------------|--------------------------|


this one's the same shit^^
E E E E E E E E E E E E E E E E
--------------------------------------0-----------|--------------0-----------|
-----------------------------------0-----0--------|-----------1-----1--------|
--------------------------------0-----------0-----|--------2-----------2-----|
-----------------------------2-----------------2--|-----2-----------------2--|
--------------------------------------------------|--0-----------------------|
--0-----------------------------------------------|--------------------------|


E E E E E E E E E E E E E E E E W
--------------0-----------|--------------3-----------|-------------------|
-----------1-----1--------|-----------3-----3--------|-------------------|
--------0-----------0-----|--------0-----------0-----|-------------------|
-----2-----------------2--|-----0-----------------0--|--L----------------|
--3-----------------------|--------------------------|-------------------|
--------------------------|--3-----------------------|-------------------|


W W H H
-------------------|-------------------|--------------------|
-------------------|-------------------|--------------------|
--7----------------|--9----------------|--5--------7--------|
--7----------------|--9----------------|--5--------7--------|
--5----------------|--7----------------|--3--------5--------|
-------------------|-------------------|--------------------|


W W Q H.
-------------------|-------------------|--------------------|
-------------------|-------------------|--------------------|
--9----------------|--8----------------|--9----9------------|
--9----------------|--8----------------|--9----9------------|
--7----------------|--6----------------|--7----7------------|
-------------------|-------------------|--------------------|


H H W W
--------------------|-------------------||--------------------|
--------------------|-------------------||--------------------|
--2--------4--------|--6----------------||*--2----------------|
--2--------4--------|--6----------------||*--2----------------|
--0--------2--------|--4----------------||---0----------------|
--------------------|-------------------||--------------------|


W W W W
-------------------|-------------------|-------------------|-------------------|
-------------------|-------------------|-------------------|-------------------|
--L----------------|--7----------------|--L----------------|--9----------------|
--L----------------|--7----------------|--L----------------|--9----------------|
--L----------------|--5----------------|--L----------------|--7----------------|
-------------------|-------------------|-------------------|-------------------|


W W H. Q
-------------------|-------------------|---------------------||
-------------------|-------------------|---------------------||
--L----------------|--2----------------|--L-----------------*||
--L----------------|--2----------------|--L------------2----*||
--L----------------|--0----------------|--L------------2-----||
-------------------|-------------------|---------------0-----||


W W W
-------------------||--------------------|-------------------|
-------------------||--------------------|-------------------|
--L----------------||*--5----------------|-------------------|
--L----------------||*--5----------------|--5----------------|
--L----------------||---3----------------|--5----------------|
-------------------||--------------------|--3----------------|


W W W W
-------------------|-------------------|-------------------|-------------------|
-------------------|-------------------|-------------------|-------------------|
-------------------|-------------------|--5----------------|-------------------|
--7----------------|--2----------------|--5----------------|--5----------------|
--7----------------|--2----------------|--3----------------|--5----------------|
--5----------------|--0----------------|-------------------|--3----------------|


W W W
-------------------|--------------------||-------------------|
-------------------|--------------------||-------------------|
-------------------|-------------------*||-------------------|
--7----------------|--L----------------*||--3----------------|
--7----------------|--L-----------------||--3----------------|
--5----------------|--L-----------------||--1----------------|


W W W
-------------------|-------------------|-------------------|
-------------------|-------------------|-------------------|
--5----------------|-------------------|-------------------|
--5----------------|--5----------------|--L----------------|
--3----------------|--5----------------|--L----------------|
-------------------|--3----------------|--L----------------|


W
Q Q Q Q H H
-------------------------------|--------------------|
---9------L-------L------------|--------------------|
--11b-----Lpb-----Lpbr----9----|--8-----------------|
-------------------------------|-----------9--------|
-------------------------------|--------------------|
-------------------------------|--------------------|


|----3----|
H Q Q Q H Q Q
----------------------------|---------------------------|
----------------------------|-----------10b----10pbr----|
------------------8----9----|--4------------------------|
--9b--------11--------------|---------------------------|
----------------------------|---------------------------|
----------------------------|---------------------------|


W
|-----3----|
H Q Q Q H H
---------------------------|--------------------|
--9--------9---------------|--------------------|
----------------11----9----|--8--------1--------|
---------------------------|--------------------|
---------------------------|--------------------|
---------------------------|--------------------|


W
Q S S S S S S S S S S S S
-----------------------------------|
-----------------------------------|
------------8------8-9----8-9-11-8-|
--9----9-11---9-11-----11----------|
-----------------------------------|
-----------------------------------|


|---3---|
S S S S S S S S S S S S E E E H E E Q
---------------------------------------------|--12--------12--14--14b----|
-------9------9-10----9-10-12-10-12--14--16--|---------------------------|
--9-11---9-11------11------------------------|---------------------------|
---------------------------------------------|---------------------------|
---------------------------------------------|---------------------------|
---------------------------------------------|---------------------------|


H H H H H H
----------------------|------------12--------|--17--------21--------|
--16--------12--------|--14------------------|----------------------|
----------------------|----------------------|----------------------|
----------------------|----------------------|----------------------|
----------------------|----------------------|----------------------|
----------------------|----------------------|----------------------|


H H W
--20--------22--------|--24----------------|
----------------------|--------------------|
----------------------|--------------------|
----------------------|--------------------|
----------------------|--------------------|
----------------------|--------------------|


From here the timing is getting VERY strange
H
---L-------------------------------------------|-------------------|
-----------------------------------------------|-------------------|
-----------------------------------------------|-------------------|
-----------------------------------------------|-------------------|
-----------------------------------------------|-------------------|
-----------------------------------------------|-------------------|


-------------------|-------------------|-------------------|-------------------|
-------------------|-------------------|-------------------|-------------------|
-------------------|-------------------|-------------------|-------------------|
-------------------|-------------------|-------------------|-------------------|
-------------------|-------------------|-------------------|-------------------|
-------------------|-------------------|-------------------|-------------------|


-------------------|-------------------|-------------------|-------------------|
-------------------|-------------------|-------------------|-------------------|
-------------------|-------------------|-------------------|-------------------|
-------------------|-------------------|-------------------|-------------------|
-------------------|-------------------|-------------------|-------------------|
-------------------|-------------------|-------------------|-------------------|


-------------------|-------------------|-------------------|-------------------|
-------------------|-------------------|-------------------|-------------------|
-------------------|-------------------|-------------------|-------------------|
-------------------|-------------------|-------------------|-------------------|
-------------------|-------------------|-------------------|-------------------|
-------------------|-------------------|-------------------|-------------------|


W
-------------------|-------------------|-------------------|-------------------|
-------------------|-------------------|-------------------|-------------------|
-------------------|-------------------|-------------------|--7----------------|
-------------------|-------------------|-------------------|--7----------------|
-------------------|-------------------|-------------------|--5----------------|
-------------------|-------------------|-------------------|-------------------|


W H H W
-------------------|--------------------|-------------------|
-------------------|--------------------|-------------------|
--9----------------|--5--------7--------|--9----------------|
--9----------------|--5--------7--------|--9----------------|
--7----------------|--3--------5--------|--7----------------|
-------------------|--------------------|-------------------|


W Q Q H H H
-------------------|---------------------|--------------------|
-------------------|---------------------|--------------------|
--8----------------|--L----9----9--------|--2--------4--------|
--8----------------|--L----9----9--------|--2--------4--------|
--6----------------|--L----7----7--------|--0--------2--------|
-------------------|---------------------|--------------------|


W W W
-------------------||--------------------|-------------------|
-------------------||--------------------|-------------------|
--6----------------||*--9----------------|-------------------|
--6----------------||*--9----------------|--9----------------|
--4----------------||---7----------------|--9----------------|
-------------------||--------------------|--7----------------|


W W W W
-------------------|-------------------|-------------------|-------------------|
-------------------|-------------------|-------------------|-------------------|
--6----------------|--4----------------|--9----------------|-------------------|
--6----------------|--4----------------|--9----------------|--6----------------|
--4----------------|--2----------------|--7----------------|--6----------------|
-------------------|-------------------|-------------------|--4----------------|


W W W
-------------------|--------------------||-------------------|
-------------------|--------------------||-------------------|
-------------------|-------------------*||-------------------|
--9----------------|--L----------------*||--7----------------|
--9----------------|--L-----------------||--7----------------|
--7----------------|--L-----------------||--5----------------|


W W W W
-------------------|-------------------|-------------------|-------------------|
-------------------|-------------------|-------------------|-------------------|
-------------------|-------------------|-------------------|--7----------------|
--L----------------|--4----------------|--L----------------|--7----------------|
--L----------------|--4----------------|--L----------------|--5----------------|
--L----------------|--2----------------|--L----------------|-------------------|


W H H H H
-------------------|--------------------|--------------------|
-------------------|--------------------|--------------------|
--L----------------|--------------------|--------------------|
--L----------------|--2--------5--------|--7--------9--------|
--L----------------|--2--------5--------|--7--------9--------|
-------------------|--0--------3--------|--5--------7--------|


W W
-------------------|-------------------||
-------------------|-------------------||
-------------------|-------------------||
--7----------------|--L----------------||
--7----------------|--L----------------||
--5----------------|--L----------------||




Duration Legend
---------------
W - whole
H - half
Q - quarter
E - 8th
S - 16th
T - 32nd
X - 64th
. - note dotted
|-n-| - n-tuplets


Tablature Legend
----------------
L - tied note
x - dead note
g - grace note
(n) - ghost note
> - accentuded note
NH - natural harmonic
AH - artificial harmonic
TH - tapped harmonic
SH - semi harmonic
PH - pitch harmonic
h - hammer on
p - pull off
b - bend
br - bendRelease
pb - preBend
pbr - preBendRelease
brb - bendReleaseBend
\n/ - tremolo bar dip
\n - tremolo bar dive
-/n - tremolo bar Release up
/n\ - tremolo bar inverted dip
/n - tremolo bar return
-\n - tremolo bar Release down
S - shift slide
s - legato slide
/ - slide into from below or out of upwards
\ - slide into from above or out of downwards
~ - vibrato
W - wide vibrato
tr - trill
TP - tremolo picking
T - tapping
S - slap
P - pop
< - fade in
^ - brush up
v - brush down