TABULATORS TO I BELIEVE

H. H. Q Q Q Q. Q.
D||-------|---------------|---------------|------------0S----|--7------10------|
A||-------|---------------|---------------|------------1S----|--8------10------|
F||-------|---------------|---------------|------------------|-----------------|
C||-------|---------------|---------------|------------------|-----------------|
G||-------|---------------|---------------|------------------|-----------------|
D||-------|---------------|---------------|------------------|-----------------|


\4
H. Q. Q. H. H.
--12------------|--15------17------|--19------------|---------------|
--12------------|--17------19------|--20------------|---------------|
----------------|------------------|----------------|---------------|
----------------|------------------|----------------|---------------|
----------------|------------------|----------------|--2------------|
----------------|------------------|----------------|--0------------|


H. H. H E E H.
---------------|-----------------|-----------------|---------------|
---------------|-----------------|-----------------|---------------|
---------------|-----------------|-----------------|---------------|
---------------|-----------------|-----------------|---------------|
--L------------|--2g3------------|--2--------------|--2------------|
--L------------|-----------------|-----------3--2--|--0------------|


H. H. H E E H.
---------------|-----------------|-----------------|---------------|
---------------|-----------------|-----------------|---------------|
---------------|-----------------|-----------------|---------------|
---------------|-----------------|-----------------|---------------|
--L------------|--2g3------------|--2--------------|--2------------|
--L------------|-----------------|-----------3--2--|--0------------|


H. H. H. H.
---------------|-----------------|---------------|---------------|
---------------|-----------------|---------------|---------------|
---------------|-----------------|---------------|---------------|
---------------|-----------------|---------------|--2------------|
--L------------|--2g3------------|--2------------|--0------------|
--L------------|-----------------|---------------|---------------|


NH
H. H. H. H.
---------------|---------------|-----------------|---------------|
---------------|---------------|-----------------|---------------|
---------------|---------------|-----------------|---------------|
--5------------|---------------|--<>7------------|---------------|
--3------------|--2------------|-----------------|--2------------|
---------------|--0------------|-----------------|--0------------|


H. H. H E E H.
---------------|----------------|-----------------|---------------|
---------------|----------------|-----------------|---------------|
---------------|----------------|-----------------|---------------|
---------------|----------------|-----------------|---------------|
--L------------|--6b------------|--5--------------|--2------------|
--L------------|----------------|-----------3--2--|--0------------|


H. H. H E E H.
---------------|----------------|-----------------|---------------|
---------------|----------------|-----------------|---------------|
---------------|----------------|-----------------|---------------|
---------------|----------------|-----------------|---------------|
--L------------|--6b------------|--5--------------|--2------------|
--L------------|----------------|-----------3--2--|--0------------|


PM PM
H. H. H. H E E
---------------|----------------|---------------|-----------------|
---------------|----------------|---------------|-----------------|
---------------|----------------|---------------|-----------------|
---------------|----------------|---------------|--2--------------|
--L------------|--6b------------|--5------------|--0--------0--2--|
--L------------|----------------|---------------|-----------------|


pre-dive 3
\5/
H. H. H. Q. Q.
---------------|---------------|---------------|----------------|
---------------|---------------|---------------|----------------|
---------------|---------------|---------------|----------------|
--5------------|---------------|---------------|----------------|
--3------------|---------------|---------------|--5------4------|
---------------|---------------|--3------------|--3------2------|


Q. Q. Q. Q. H. Q. Q.
----------------|----------------|---------------|----------------|
----------------|----------------|---------------|----------------|
----------------|----------------|---------------|----------------|
---------7------|--5------7------|---------------|----------------|
--2------5------|--3------5------|--5------------|--5------4------|
--0-------------|----------------|--3------------|--3------2------|


Q. Q. Q. Q. H. Q. Q.
----------------|----------------|---------------|----------------|
----------------|----------------|---------------|----------------|
----------------|----------------|---------------|----------------|
---------7------|--5------7------|---------------|----------------|
--2------5------|--3------5------|--5------------|--5------4------|
--0-------------|----------------|--3------------|--3------2------|


Q. Q. Q. Q. H. Q. Q.
----------------|----------------|---------------|----------------|
----------------|----------------|---------------|----------------|
----------------|----------------|---------------|----------------|
---------7------|--5------7------|---------------|----------------|
--2------5------|--3------5------|--5------------|--5------4------|
--0-------------|----------------|--3------------|--3------2------|


Q. Q. Q. Q. H. H.
----------------|----------------|---------------|---------------|
----------------|----------------|---------------|---------------|
----------------|----------------|---------------|---------------|
---------7------|--5------7------|---------------|---------------|
--2------5------|--3------5------|--5------------|--2------------|
--0-------------|----------------|--3------------|--0------------|


w/bar
H. H E E H. H.
---------------|--------------12br--|---L------------|---------------|
---------------|--------------12br--|---L------------|---------------|
---------------|--------------------|----------------|---------------|
---------------|--------------------|----------------|---------------|
--L------------|--------------------|----------------|--2------------|
--L------------|--------------------|----------------|--0------------|


H. H. H E E H.
---------------|----------------|-----------------|---------------|
---------------|----------------|-----------------|---------------|
---------------|----------------|-----------------|---------------|
---------------|----------------|-----------------|---------------|
--L------------|--6b------------|--5--------------|--2------------|
--L------------|----------------|-----------3--2--|--0------------|


PM PM
H. H. H. H E E
---------------|----------------|---------------|-----------------|
---------------|----------------|---------------|-----------------|
---------------|----------------|---------------|-----------------|
---------------|----------------|---------------|--2--------------|
--L------------|--6b------------|--5------------|--0--------0--2--|
--L------------|----------------|---------------|-----------------|


\2
H. Q. Q. H. H.
---------------|--15------17------|--19------------|---------------|
---------------|--17------19------|--20------------|---------------|
---------------|------------------|----------------|---------------|
--5------------|------------------|----------------|---------------|
--3------------|------------------|----------------|--2------------|
---------------|------------------|----------------|--0------------|


H. H. H E E H.
---------------|----------------|-----------------|---------------|
---------------|----------------|-----------------|---------------|
---------------|----------------|-----------------|---------------|
---------------|----------------|-----------------|---------------|
--L------------|--6b------------|--5--------------|--2------------|
--L------------|----------------|-----------3--2--|--0------------|


H. H. H E E H.
---------------|----------------|-----------------|---------------|
---------------|----------------|-----------------|---------------|
---------------|----------------|-----------------|---------------|
---------------|----------------|-----------------|---------------|
--L------------|--6b------------|--5--------------|--2------------|
--L------------|----------------|-----------3--2--|--0------------|


PM PM
H. H. H. H E E
---------------|----------------|---------------|-----------------|
---------------|----------------|---------------|-----------------|
---------------|----------------|---------------|-----------------|
---------------|----------------|---------------|--2--------------|
--L------------|--6b------------|--5------------|--0--------0--2--|
--L------------|----------------|---------------|-----------------|


H. H. H. Q. Q.
---------------|---------------|---------------|----------------|
---------------|---------------|---------------|----------------|
---------------|---------------|---------------|----------------|
--5------------|---------------|---------------|----------------|
--3------------|--2------------|--L------------|--5------4------|
---------------|--0------------|--L------------|--3------2------|


Q. Q. Q. Q. H. Q. Q.
----------------|----------------|---------------|----------------|
----------------|----------------|---------------|----------------|
----------------|----------------|---------------|----------------|
---------7------|--5------7------|---------------|----------------|
--2------5------|--3------5------|--5------------|--5------4------|
--0-------------|----------------|--3------------|--3------2------|


Q. Q. Q. Q. H. Q. Q.
----------------|----------------|---------------|----------------|
----------------|----------------|---------------|----------------|
----------------|----------------|---------------|----------------|
---------7------|--5------7------|---------------|----------------|
--2------5------|--3------5------|--5------------|--5------4------|
--0-------------|----------------|--3------------|--3------2------|


Q. Q. Q. Q. H. Q. Q.
----------------|----------------|---------------|----------------|
----------------|----------------|---------------|----------------|
----------------|----------------|---------------|----------------|
---------7------|--5------7------|---------------|----------------|
--2------5------|--3------5------|--5------------|--5------4------|
--0-------------|----------------|--3------------|--3------2------|


Q. Q. Q. Q. H. E E E E E E
----------------|----------------|---------------|---------------------------|
----------------|----------------|---------------|-----------------------12--|
----------------|----------------|---------------|--------------11b--14------|
---------7------|--5------7------|---------------|------12--14---------------|
--2------5------|--3------5------|--5------------|--14-----------------------|
--0-------------|----------------|--3------------|---------------------------|


PH PH
H E E E E E Q S S
-----------------------|------------------------------|
--14b--------<>13--12--|--<>13--12------12br-----L----|
-----------------------|------------14-------------14-|
-----------------------|------------------------------|
-----------------------|------------------------------|
-----------------------|------------------------------|


T
Q. S S S. S S T
-----------------12-17p-15p-12-|
--12------12h-15---------------|
-------------------------------|
-------------------------------|
-------------------------------|
-------------------------------|


T T T T T
|---3--| |---3--| |---3--| |---3--|
S S S S S S S S S T T S T T T S. T. T.
--19p--L-15p-12-17p-15p-12-17p-15p-12-----------------------------|
--------------------------------------15-17p--L-12h-15-17p-15p-12-|
------------------------------------------------------------------|
------------------------------------------------------------------|
------------------------------------------------------------------|
------------------------------------------------------------------|


T T T T T T
|--3--|
T T T T T T T. T T T T T T S T T T S T.T T T
--------------------------------------------------------------------------|
--------------------------------------------------------------------------|
--16p-12h-14-16p--L-14p-12S-9-14p-9-14p-9h-12-----------------------------|
----------------------------------------------14p-9h-L-12-14h-14-9h-12p-9-|
--------------------------------------------------------------------------|
--------------------------------------------------------------------------|


T T
|--3-| |--3--| |---3--|
T S T S S S S S S S S S S S S T T
---------------------------------------------------------|
---------------------------------------------------------|
---------------------------------------------------------|
---------------------------------------------------------|
--14p-7h-10p-7h-10-7-10-7-10p-7h-10p-7h-10-12p-10p-7-----|
-----------------------------------------------------10h-|


Q. E E E Q. E E E E E E E E E
----------------------|----------------------|-----------------------------|
----------------------|----------------------|-------------------------17--|
----------------------|------------------12--|--12------12--14b--14pb------|
----------------------|--12------12----------|------14---------------------|
------------------10--|--------------14------|-----------------------------|
--7------/10--12------|----------------------|-----------------------------|


|---3---| |-------5-------|
Q. E E E Q. S S S S S S S S
----------------15--19--|--18b~-----------------17h-19h-20p-19p-17-|
--16b------16b----------|------------17h-19h-20--------------------|
------------------------|------------------------------------------|
------------------------|------------------------------------------|
------------------------|------------------------------------------|
------------------------|------------------------------------------|


Q. Q. Q. E E E E E E E E E
--19------17------|---------------19--20--|--21b--20--22--24--22--24--|
------------------|--20------21b----------|---------------------------|
------------------|-----------------------|---------------------------|
------------------|-----------------------|---------------------------|
------------------|-----------------------|---------------------------|
------------------|-----------------------|---------------------------|


Q. T T S Q Q. Q. Q. Q. Q. Q.
--24b-------L----------|----------------|----------------|----------------|
-----------------------|----------------|----------------|----------------|
-----------------------|----------------|----------------|----------------|
-----------------------|----------------|---------7------|--5------7------|
-----------------------|--5------4------|--2------5------|--3------5------|
-----------------------|--3------2------|--0-------------|----------------|


H. Q. Q. Q. Q. Q. Q.
---------------|----------------|----------------|----------------|
---------------|----------------|----------------|----------------|
---------------|----------------|----------------|----------------|
---------------|----------------|---------7------|--5------7------|
--5------------|--5------4------|--2------5------|--3------5------|
--3------------|--3------2------|--0-------------|----------------|


H. Q. Q. Q. Q. Q. Q.
---------------|----------------|----------------|----------------|
---------------|----------------|----------------|----------------|
---------------|----------------|----------------|----------------|
---------------|----------------|---------7------|--5------7------|
--5------------|--5------4------|--2------5------|--3------5------|
--3------------|--3------2------|--0-------------|----------------|


H. Q. Q. Q. Q. Q. Q.
---------------|----------------|----------------|----------------|
---------------|----------------|----------------|----------------|
---------------|----------------|----------------|----------------|
---------------|----------------|---------7------|--5------7------|
--5------------|--5------4------|--2------5------|--3------5------|
--3------------|--3------2------|--0-------------|----------------|


H. Q. Q. Q. Q. Q. Q.
---------------|----------------|----------------|----------------|
---------------|----------------|----------------|----------------|
---------------|----------------|----------------|----------------|
---------------|----------------|---------7------|--5------7------|
--5------------|--5------4------|--2------5------|--3------5------|
--3------------|--3------2------|--0-------------|----------------|


H. Q. Q. Q. Q. H.
---------------|----------------|----------------|---------------|
---------------|----------------|----------------|---------------|
---------------|----------------|----------------|---------------|
---------------|----------------|---------7------|---------------|
--5------------|--5------4------|--2------5------|---------------|
--3------------|--3------2------|--0-------------|---------------|


T T
E S T T T T S. T T T T T. T T. S. H.
--19p--17p-15p-14h-15h-17-19p-17p-15p-14h-15p-14----14-----|----------------|
-------------------------------------------------17----15~-|---L------------|
-----------------------------------------------------------|----------------|
-----------------------------------------------------------|----------------|
-----------------------------------------------------------|----------------|
-----------------------------------------------------------|----------------|


\1/ \1/
Q. Q. H. E S. S S S. S E S S
-----------------|---------------|-----------------------------|
---L-------------|---------------|-----------------------------|
-----------------|---------------|-----9--9---L----------------|
-----------------|---------------|--------------9--9---L-------|
-----------------|---------------|------------------------10-7-|
-----------------|---------------|-----------------------------|


\3
H. Q. Q. H. H.
-----------------|---------15------|---------------|---------------|
-----------------|-----------------|---------------|---------------|
-----------------|-----------------|---------------|---------------|
-----------------|-----------------|---------------|---------------|
--10~------------|-----------------|---------------|---------------|
-----------------|-----------------|---------------|---------------|


Q. Q. Q. Q. H. Q E Q.
----------------|----------------|---------------|----------------------|
----------------|----------------|---------------|----------------------|
----------------|----------------|---------------|----------------------|
----------------|---------7------|---------------|----------------------|
--5------4------|--2------5------|---------------|----------------------|
--3------2------|--0-------------|---------------|-------(3)S--15\------|


Q. Q. Q. Q. Q. Q. H.
----------------|----------------|----------------|---------------|
----------------|----------------|----------------|---------------|
----------------|----------------|----------------|---------------|
----------------|----------------|--5------7------|---------------|
--5-------------|--2------5------|--3------5------|--5------------|
--3------2------|--0-------------|----------------|--3------------|


H. H. H.
----------------|---------------|---------------||
----------------|---------------|---------------||
----------------|---------------|---------------||
----------------|---------------|---------------||
---L------------|--L------------|---------------||
---L------------|--L------------|---------------||




Duration Legend
---------------
W - whole
H - half
Q - quarter
E - 8th
S - 16th
T - 32nd
X - 64th
. - note dotted
|-n-| - n-tuplets


Tablature Legend
----------------
L - tied note
x - dead note
g - grace note
(n) - ghost note
> - accentuded note
NH - natural harmonic
AH - artificial harmonic
TH - tapped harmonic
SH - semi harmonic
PH - pitch harmonic
h - hammer on
p - pull off
b - bend
br - bendRelease
pb - preBend
pbr - preBendRelease
brb - bendReleaseBend
\n/ - tremolo bar dip
\n - tremolo bar dive
-/n - tremolo bar Release up
/n\ - tremolo bar inverted dip
/n - tremolo bar return
-\n - tremolo bar Release down
S - shift slide
s - legato slide
/ - slide into from below or out of upwards
\ - slide into from above or out of downwards
~ - vibrato
W - wide vibrato
tr - trill
TP - tremolo picking
T - tapping
S - slap
P - pop
< - fade in
^ - brush up
v - brush down