TABULATORS TO KILL WITH POWER

Tabbed by HeXa(Heikki.Mustonen@kymp.net)
THANX TO MANOEL

Standard Tuning

|----------------------------------------------------------------------14(16)|
|-----------------------------------------------(slide)----------------------|
|-----------------------------------------------1122334455667788999999-------|
|----------------------------------------------------------------------------|
|----------------------------------------------------------------------------|
|-Slide-your-finger-slightly-on-the-string--0\-------------------------------|

|-15-12----12----------------------------------------------------------------|
|-------15----15-12----12------------------------------12-13-12----12-13-12--|
|-------------------14----14-12------------------12-14----------14---------14|
|-------------------------------14---12-14-12-14-----------------------------|
|----------------------------------------------------------------------------|
|----------------------------------------------------------------------------|

|-------------------------17(19)---15h17p15----------------------------------|
|-------------15h17p15h17-------------------15h17p15------8-10-8---8---------|
|-12-------------------------------------------------16----------9---9-7-----|
|----14------------------------------------------------------------------9-7-|
|----------------------------------------------------------------------------|
|--------0\------------------------------------------------------------------|

|----------------------------------------------------------------------------|
|----------------------------------------------15-12-------------------------|
|----------------------12-14(16)br-12----12-14-------14-12----14-12----------|
|----------------12-14----------------14-------------------14------14--12----|
|-10-------12-14----------------------------------------------------------14-|
|----12-15-------------------------------------------------------------------|

|------------------------------------21-\-21-----12--------------------------|
|---------------------------------------------------15-12--------------------|
|---------------------------------------------------------14-12--------------|
|-------------------------12-14---------------------------------14-----------|
|-13-12-------------12-14----------------------------------------------------|
|-------15-12-15-12----------------------------------------------------------|

|-15----15----15----17-15----17-15----19-15-----19\----15-17-15--------------|
|----17----17----17-------17-------17-------17------------------17-15-17-----|
|----------------------------------------------------------------------------|
|----------------------------------------------------------------------------|
|----------------------------------------------------------------------------|
|----------------------------------------------------------------------------|

|----------------------------------------------------------------------------|
|----------------------------------------------------------------------------|
|-16-14-12-14-16-14-12----------12-14-12----12-14-12----12-14-12-------------|
|----------------------14----14----------14----------14----------14----------|
|----------------------------------------------------------------------------|
|----------------------------------------------------------------------------|

|----------------------------------------------------------------------------|
|----------------------------------------------------------------------------|
|--------------------------------------12(13)--------------------------------|
|-14-12-14--10-9-10-12-10-9----9-10-12--------10-9-10-9----9-10--------------|
|---------------------------12--------------------------12-------------------|
|----------------------------------------------------------------------------|

|-12-----12------12-----12-----15-12----15-12----15-12----15-12--17-15-------|
|-15(17)-15(17)--15(17)-15(17)-------15-------15-------15--------------15----|
|----------------------------------------------------------------------------|
|----------------------------------------------------------------------------|
|----------------------------------------------------------------------------|
|----------------------------------------------------------------------------|

|-17-15----19-15-----20-17----22-20----22(24)--------------------------------|
|-------15-------17--------17-------20----------------------12-15(17)--------|
|-----------------------------------------------------12-14------------------|
|-----------------------------------------------12-14------------------------|
|----------------------------------------------------------------------------|
|----------------------------------------------------------------------------|

|----------------------------------------------------------------------------|
|-----------------------------12-15(17)-------12-15-12-----------------------|
|-----------------------12-14-----------12-14----------14-12-----------------|
|--14-12----------12-14--------------------------------------14-12-----------|
|--------14-12-14--------------------------------------------------14-12-----|
|------------------------------------------------------------------------15-12

|----------------------------------------------------------------------------|
|----------------------------------------------------------------------------|
|----------------------------------------------------------------------------|
|---------------------------9-10-12-9-10-12-9-10-12--------------------------|
|----------------------------------------------------------------------------|
|-0\--some-strange-effects---------------------------------------------------|