TABULATORS TO LOKI - GOD OF FIRE

Loki -God of Fire TAB
Loki - God of Fire
ManOwaR

Tabbed by Jah Nix aka Nightwolf

Use these for a guide - this is not a Jah Nix Productions release
Sorry bout any mistakes - I tabbed this on first listen...

email correspondance to nick@jahnixproductions.com

DROPPED D

intro/chorus
pm|--------------------|
g-7--5--7--------------------------------
d-7--5--7----------------------------3---
a-5--3--5----5-5-5-5-3-3-3-3-5-5-5-5-----
d-0-----0--------------------------------

pm|------------|
g-7--5--7--------------------------------
d-7--5--7--------------------------------
a-5--3--5----5-5-5-5-3-3-3-3-5-----------
d-0-----0--------------------------------

pre-verse
pm-| pm-| pm----------------|
g-7-----7-----7-------------------
d-7-----7-----7-------------------
a-5-----5-----5-------------------
e-0-0-0-0-0-0-0-0-0-0-0-0-0-0-0-0- x3

pm-| pm-| pm-------|
g-7-----7-----7-----------5-------
d-7-----7-----7-----------5-------
a-5-----5-----5-----------3-------
e-0-0-0-0-0-0-0-0-0-0-0-0--------- x1

ok now for the verse

riff a
pm-| pm-| pm--------------|
g-7-----5-----7------------------
d-7-----5-----7------------------
a-5-----3-----5------------------
e-0-0-0---0-0-0-0-0-0-0-0-0-0-0-0 x4

riff b
pm-| pm-| pm-| pm-| pm pm
g---------------------------------
d---------------------------------
a-5-----3-----5-----3-----5---3---
e-5-0-0-3-0-0-5-0-0-3-0-0-5-0-3-0-

pm-| pm-| pm-| pm
g-----------------------3---3-----
d-----------------------3---3-----
a-5-----3-----5-----3---1---1-----
e-5-0-0-3-0-0-5-0-0-3-0-----------

back to riff a
then pre-chorus

pm-----------------------------|
g---------------------------------
d---------------------------------
a-3-3-3-3-3-3-3-3-2-2-2-2-1-1-1-1-
e-3-3-3-3-3-3-3-3-2-2-2-2-1-1-1-1-

then to chorus/intro riff

The solo riff is just Joey playing D on his lurvely
modified bass while Karl goes for it - Almost Shankle-esque.
Let me enjoy the album and Ill get back with the solo (eventually)

Thats pretty much it in a nutshell.

A trick to emulate the solo sound for Bass players is to
run your bass signal to 2 seperate destinations :-
1 Clean amp and
1 Dirty amp and simply play an octave up

Id put money down that Joeys tech does it like this or side chains
the bass signal to some magical compressor that make distorted bass
controllable and good!

nick@jahnixproductions.com
www.jahnixproductions.com