TABULATORS TO MANOWAR


PM PM PM PM PM PM PM PM
E E H. E E Q E E Q E E H.
E||---------------------|------------------------||----------------------|
B||---------------------|------------------------||----------------------|
G||---------------------|--------4----------2----||*---------------------|
D||--------2------------|--------4----------2----||*--------2------------|
A||--2--2--2------------|--2--2--2----0--0--0----||---2--2--2------------|
E||--0--0--0------------|------------------------||---0--0--0------------|


PM PM PM PM PM PM PM PM PM PM PM PM PM PM PM
E E Q E E Q E S S E S S E S S E S S
-------------------------||--------------------------------------|
-------------------------||--------------------------------------|
--------4----------2----*||--------------------------------------|
--------4----------2----*||--------------------------------------|
--2--2--2----0--0--0-----||--5-----------------------------------|
-------------------------||--3--3--3--3--3--3--3--3--3--3--3--3--|


PM PM PM PM PM PM PM PM PM PM PM PM PM PM PM PM PM PM PM PM PM PM PM
E S S E S S E S S E S S E S S E S S E S S E S S
--------------------------------------|--------------------------------------|
--------------------------------------|--------------------------------------|
--------------------------------------|--------------------------------------|
--------------------------------------|--------------------------------------|
--------------------------------------|--9-----------------------------------|
--3--3--3--3--3--3--3--3--3--3--3--3--|--7--7--7--7--7--7--7--7--7--7--7--7--|


PM PM PM PM PM PM PM PM
E E E E E E E E E E E E E E E E
--------------------------|--------------------------|
--------------------------|--------------------------|
--------------------------|--------------------------|
--------------------------|--------------------------|
--9-----------9-----------|--2--2--2--2--2--2--2--2--|
--7-----------7-----------|--0--0--0--0--0--0--0--0--|


PM PM PM PM PM PM PM PM PM PM PM PM PM PM PM PM
E E E E E E E E E E E E E E E E
--------------------------|--------------------------|
--------------------------|--------------------------|
--------------------------|--------------------------|
--------------------------|--------------------------|
--2--2--2--2--2--2--2--2--|--2--2--2--2--2--2--2--2--|
--0--0--0--0--0--0--0--0--|--0--0--0--0--0--0--0--0--|


something like this...
H H W W
----------------------------------|-------------------|-------------------|
----------------------------------|-------------------|-------------------|
----------------------------------|-------------------|-------------------|
----------------------------------|--2----------------|--L----------------|
----------------------------------|--2----------------|--L----------------|
--12s--------------------0--------|--0----------------|--L----------------|


PM PM PM
W W E E E Q. E E
-------------------|-------------------|------------------------|
-------------------|-------------------|------------------------|
-------------------|-------------------|-----------4------4--L--|
--L----------------|--L----------------|--9--9--9--4------4--L--|
--L----------------|--L----------------|--7--7--7--2------2--L--|
--L----------------|--L----------------|------------------------|


PM PM PM PM PM PM PM PM PM PM PM PM PM PM PM PM PM PM PM
E E E Q. E E E E E E E E E E E E E E E E E E
------------------------|--------------------------|--------------------------|
------------------------|--------------------------|--------------------------|
-----------4------4--L--|--------------------------|--------------------------|
--9--9--9--4------4--L--|--------------------------|--------------------------|
--7--7--7--2------2--L--|--2--2--2--2--2--2--2--2--|--2--2--2--2--2--2--2--2--|
------------------------|--0--0--0--0--0--0--0--0--|--0--0--0--0--0--0--0--0--|


PM PM PM PM PM PM PM PM PM PM PM PM PM PM PM PM PM PM PM
E E E E E E E E E E E E E E E E E E E Q. E E
--------------------------|--------------------------|------------------------|
--------------------------|--------------------------|------------------------|
--------------------------|--------------------------|-----------4------4--L--|
--------------------------|--------------------------|--9--9--9--4------4--L--|
--2--2--2--2--2--2--2--2--|--2--2--2--2--2--2--2--2--|--7--7--7--2------2--L--|
--0--0--0--0--0--0--0--0--|--0--0--0--0--0--0--0--0--|------------------------|


not 100% sure about this
PM PM PM PM PM PM PM PM
E E E Q. E E E E E E E E E E
------------------------||-------------------------------------------------|
------------------------||-------------------------------------------------|
-----------4------4--L--||*------------------------------------------------|
--9--9--9--4------4--L--||*--9------------------------------8--------6-----|
--7--7--7--2------2--L--||---7------------------------7--7--6--6--6--4--4--|
------------------------||-------------------------------------------------|


PM PM PM PM PM PM PM PM PM PM PM PM PM
E E E E E E E E E E E E E E E E
--------------------------|--------------------------|
--------------------------|--------------------------|
--------------------------|--------------------------|
-----4--------2-----------|--4-----------------------|
--4--2--2--2--0--0--0--0--|--2--2--2--2--2--2--2--2--|
--------------------------|--------------------------|


PM PM PM PM PM PM PM PM PM PM PM PM PM PM
E E E E E E E E E E H. E E Q E E Q
---------------------------||---------------------|------------------------|
---------------------------||---------------------|------------------------|
--------------------------*||---------------------|--------4----------2----|
--------------------------*||--------2------------|--------4----------2----|
--2--2--2--2--2--2--2--2---||--2--2--2------------|--2--2--2----0--0--0----|
---------------------------||--0--0--0------------|------------------------|


PM PM PM PM PM PM
E E H. E E Q E E Q
|----------------------|-------------------------||
|----------------------|-------------------------||
|*---------------------|--------4----------2----*||
|*--------2------------|--------4----------2----*||
|---2--2--2------------|--2--2--2----0--0--0-----||
|---0--0--0------------|-------------------------||


PM PM PM PM PM PM PM PM PM PM PM PM PM PM PM PM PM PM PM PM PM PM PM
E S S E S S E S S E S S E S S E S S E S S E S S
--------------------------------------|--------------------------------------|
--------------------------------------|--------------------------------------|
--------------------------------------|--------------------------------------|
--------------------------------------|--------------------------------------|
--5-----------------------------------|--------------------------------------|
--3--3--3--3--3--3--3--3--3--3--3--3--|--3--3--3--3--3--3--3--3--3--3--3--3--|


PM PM PM PM PM PM PM PM PM PM PM
E S S E S S E S S E S S E E E E E E E E
--------------------------------------|--------------------------||
--------------------------------------|--------------------------||
--------------------------------------|--------------------------||
--------------------------------------|--------------------------||
--9-----------------------------------|--9-----------9-----------||
--7--7--7--7--7--7--7--7--7--7--7--7--|--7-----------7-----------||




Duration Legend
---------------
W - whole
H - half
Q - quarter
E - 8th
S - 16th
T - 32nd
X - 64th
. - note dotted
|-n-| - n-tuplets


Tablature Legend
----------------
L - tied note
x - dead note
g - grace note
(n) - ghost note
> - accentuded note
NH - natural harmonic
AH - artificial harmonic
TH - tapped harmonic
SH - semi harmonic
PH - pitch harmonic
h - hammer on
p - pull off
b - bend
br - bendRelease
pb - preBend
pbr - preBendRelease
brb - bendReleaseBend
\n/ - tremolo bar dip
\n - tremolo bar dive
-/n - tremolo bar Release up
/n\ - tremolo bar inverted dip
/n - tremolo bar return
-\n - tremolo bar Release down
S - shift slide
s - legato slide
/ - slide into from below or out of upwards
\ - slide into from above or out of downwards
~ - vibrato
W - wide vibrato
tr - trill
TP - tremolo picking
T - tapping
S - slap
P - pop
< - fade in
^ - brush up
v - brush down