TABULATORS TO METAL DAZE

Tabbed By HeXa
THANX TO MANOEL

Standard Tuning(EADGBE)

Main Riff
|----------------------------------------------------------------------------|
|----------------------------------------------------------------------------|
|------------------------7-7-7-----------------------------------------------|
|-5h7-----7-7-7--5h7-----7-7-7-5h7-----7--7-7--------------------------------|
|-0---0-0-0-0-0--0---0-0-0-0-0-0---0-0-0--0-0--------------------------------|
|----------------------------------------------3-0-3-0-3/5-------------------|

Fill C - G - D


|----------------------------------------------------------------------------|
|----------------------------------------------------------------------------|
|------9-8-----------6-5-----------2-1------2--------------------------------|
|-7-10-----9-----4-7-----6-----0-3-----2----2--------------------------------|
|------------10------------7-------------3--0--------------------------------|
|----------------------------------------------------------------------------|

Chorus
|----------------------------------------------------------------------------|
|----------------------------------------------------------------------------|
|-2--4-5-----2---------------------------------------------------------------|
|-2--4-5--5--2---------------------------------------------------------------|
|-0--2-3--5--0---------------------------------------------------------------|
|---------3------------------------------------------------------------------|

I'm too lazy to even start to think about the solo....