TABULATORS TO METAL WARRIORS

Transcribed by HeXa(Heikki.Mustonen@kymp.net)
THANX TO MANOEL

Standard Tuning


|-10h13p10-13(15)--10h13p10-15(17)-br-13-17(19)--19(21)---20(22)--22(24)-----|
|----------------------------------------------------------------------------|
|----------------------------------------------------------------------------|
|----------------------------------------------------------------------------|
|----------------------------------------------------------------------------|
|----------------------------------------------------------------------------|

|-17(19)-14-17-14----14------------------------------------------------------|
|-----------------17----17(19)--14-----17p14-----17p14-----------------------|
|-------------------------------16(18)----16(18)----16(18)-16-14----16-------|
|----------------------------------------------------------------16----------|
|----------------------------------------------------------------------------|
|----------------------------------------------------------------------------|

T T T T T T T T
|-17p15p12-17p15p12-17p15p12-17p15p12-17p15p12-17p15p12-17p15p12-17p15p12----|
|----------------------------------------------------------------------------|
|----------------------------------------------------------------------------|
|----------------------------------------------------------------------------|
|----------------------------------------------------------------------------|
|----------------------------------------------------------------------------|
P.H fill 1 fill2 P.H
|17(19)-----|-------|------------------------17(19)/\\-----------------------|
|--------0\-|-------|--play-with-harmonizer----------------------------------|
|-----------|-------|--something-cool...--------------12-14(16)\/\/----------|
|-----------|-------|--------------------------------------------------------|
|-----------|-------|--------------------------------------------------------|
|-----------|--0\---|--------------------------------------------------------|

fill 3 T T T
|-17-15-12----17-15-12----17-15-12----17-15-12----17p15p12-17p15p12-17p15p12-|
|----------15----------15----------15----------15----------------------------|
|----------------------------------------------------------------------------|
|----------------------------------------------------------------------------|
|----------------------------------------------------------------------------|
|----------------------------------------------------------------------------|
T T T T T T T T
|-19p17p15-19p17p15-19p17p15-19p17p15-20p17p15-20p17p15-19p17p15-19p17p15----|
|----------------------------------------------------------------------------|
|----------------------------------------------------------------------------|
|----------------------------------------------------------------------------|
|----------------------------------------------------------------------------|
|----------------------------------------------------------------------------|
fill 4
|-17p15-15p14-14p12-12p10-10p8-8p7-|----------------------P.H----------------|
|----------------------------------|-Have-fun-with-trem---12\----------------|
|----------------------------------|-and-slide-all-your----------------------|
|----------------------------------|-fingers-over-the-pickups----------------|
|----------------------------------|-----------------------------------------|
|----------------------------------|-----------------------------------------|