TABULATORS TO MY SPIRIT LIVES ON


S S S S S S S S S S S S S S S S S S S S S S S S
E||--------------|--------------|--------------|--------------|
B||--------------|--------------|--------------|--------------|
G||--------------|--------------|--------------|--------------|
D||--------------|--------------|--------------|--------------|
A||--------------|--------------|--------------|--------------|
E||--0-0-0-0-0-0-|--0-0-7-7-7-7-|--6-6-6-6-5-5-|--5-5-0-0-0-0-|


S S S S S S S S S S S S S S S S S S S S S S S S
------------------|--------------|--------------|--------------|
------------------|--------------|--------------|--------------|
------------------|--------------|--------------|--------------|
------------------|--------------|--------------|--------------|
--10-10-10-10-9-9-|--9-9-8-8-8-8-|--------------|--------------|
------------------|--------------|--0-0-0-0-7-7-|--7-7-6-6-6-6-|


S S S S S S S S S S S S S S S S S S S S S S S S
----------------|----------------|----------------|----------------|
----------------|----------------|----------------|----------------|
----------------|----------------|----------------|----------------|
----------------|----------------|----------10-10-|--10-10-9-9-9-9-|
----------10-10-|--10-10-9-9-9-9-|--8-8-8-8-------|----------------|
--5-5-5-5-------|----------------|----------------|----------------|


S S S S S S S S S S S S S S S S S S S S S S S S S S S S S S
--------------|--------------|----------------|-----------0-0-|--0-0-7-8-0-0-|
--------------|------8-8-8-8-|--7-7-7-7-12-10-|--8-10-8-7-----|--------------|
--9-9-9-9-8-8-|--8-8---------|----------------|---------------|--------------|
--------------|--------------|----------------|---------------|--------------|
--------------|--------------|----------------|---------------|--------------|
--------------|--------------|----------------|---------------|--------------|


S S S S S S S S S S S S S S S S S S S S S S S S S S S S S S
--0-0-5-7-0-0-|--0-0-3-5-3-2-|----2---------|--------------|--------------|
--------------|--------------|--5---5-3-0-0-|--0-0-7-8-0-0-|--0-0-5-7-0-0-|
--------------|--------------|--------------|--------------|--------------|
--------------|--------------|--------------|--------------|--------------|
--------------|--------------|--------------|--------------|--------------|
--------------|--------------|--------------|--------------|--------------|


S S S S S S S S S S S S S S S S S S S S S S S S S S S S S S
--------------|--------------|--------------|--------------|--------------|
--0-0-3-5-3-1-|--0-1-0-------|------3-5-----|------1-3-----|------0-1-----|
--------------|--------2-2-2-|--2-2-----2-2-|--2-2-----2-2-|--2-2-----4-2-|
--------------|--------------|--------------|--------------|--------------|
--------------|--------------|--------------|--------------|--------------|
--------------|--------------|--------------|--------------|--------------|


S S S S S S S S S S S S S S S S S S S S S S S S S S S S S S
--------------|--------------|--------------|------5-----5-|--7---5-7-8-7-|
--------------|--------------|------------5-|--7-8---7-8---|----8---------|
----2-----5-4-|----4---------|------4-5-7---|--------------|--------------|
--5---5-4-----|--7---7-5---4-|--5-7---------|--------------|--------------|
--------------|----------7---|--------------|--------------|--------------|
--------------|--------------|--------------|--------------|--------------|


S S S S S S S S S S S S S S S S S S
--8-10-------------|-----------12-14-15-|--------------------|
-------------------|--12-13-15----------|--12-13-15-13-15-17-|
----------11-12-14-|--------------------|--------------------|
-------14----------|--------------------|--------------------|
-------------------|--------------------|--------------------|
-------------------|--------------------|--------------------|


S S S S S S S S S S S S S S S S S S
--------------------|--19-17-19-20-19-20-|--22-20-22-22-24----|
--15-17-19-17-19-20-|--------------------|--------------------|
--------------------|--------------------|--------------------|
--------------------|--------------------|--------------------|
--------------------|--------------------|--------------------|
--------------------|--------------------|-----------------12-|


S S S S S S S S S S S S S S S S S S
-----------------12-|--15-12----19-15----|--15-14-12----12----|
--------------12----|--------15-------17-|-----------15----15-|
-----------12-------|--------------------|--------------------|
--------14----------|--------------------|--------------------|
-----14-------------|--------------------|--------------------|
--15----------------|--------------------|--------------------|


S S S S S S S S S S S S 4x S S S S S S 4x
--------------------||---22-17----------17--||---21-17----------17--||
--13-15-13-12-13-12-||---------19----19-----||---------19----19-----||
--------------------||*-----------19-------*||*-----------18-------*||
--------------------||*--------------------*||*--------------------*||
--------------------||----------------------||----------------------||
--------------------||----------------------||----------------------||


S S S S S S 4x S S S S S S 4x S S S S S S 4x
---19-15----------15--||---20-15----------15--||---15-10----------10--||
---------17----17-----||---------17----17-----||---------12----12-----||
*-----------16-------*||*-----------17-------*||*-----------12-------*||
*--------------------*||*--------------------*||*--------------------*||
----------------------||----------------------||----------------------||
----------------------||----------------------||----------------------||


S S S S S S 4x S S S S S S 4x S S S S S S 4x
---14-10----------10--||---13-10----------10--||---12-8-------8--||
---------12----12-----||---------12----12-----||--------8---8----||
*-----------11-------*||*-----------13-------*||*---------9-----*||
*--------------------*||*--------------------*||*---------------*||
----------------------||----------------------||-----------------||
----------------------||----------------------||-----------------||


S S S S S S S S S S S S S S S S S S S S S S S S 4x
---11-8-------8--||--10-8-7-8-7----|--7-------------||---7-3-------3--||
--------8---8----||-------------10-|----10-8-10-8-7-||-------3---3----||
*---------8-----*||----------------|----------------||*--------4-----*||
*---------------*||----------------|----------------||*--------------*||
-----------------||----------------|----------------||----------------||
-----------------||----------------|----------------||----------------||


S S S S S S S S S S S S S S S S S S S S S S S S 3x S S S S S S
---5-0-------0-|--6-1-------1-|--7-2-------2-|--8-3-------3--||---9-4-------4-|
-------1---1---|------2---2---|------3---3---|------4---4----||-------5---5---|
*--------2-----|--------3-----|--------4-----|--------5-----*||*--------6-----|
*--------------|--------------|--------------|--------------*||*--------------|
---------------|--------------|--------------|---------------||---------------|
---------------|--------------|--------------|---------------||---------------|


S S S S S S 4x S S S S S S S S S S S S S S S S S S
--10-5-------5--||---11-6-------6-|--12-7-------7-|--13-8--------8-|
-------6---6----||--------7---7---|-------8---8---|-------9----9---|
---------7-----*||*---------8-----|---------9-----|---------10-----|
---------------*||*---------------|---------------|----------------|
----------------||----------------|---------------|----------------|
----------------||----------------|---------------|----------------|


S S S S S S 4x Q.
--14-9----------9--||--L------||
-------10----10----||---------||
----------11------*||---------||
------------------*||---------||
-------------------||---------||
-------------------||---------||




Duration Legend
---------------
W - whole
H - half
Q - quarter
E - 8th
S - 16th
T - 32nd
X - 64th
. - note dotted
|-n-| - n-tuplets


Tablature Legend
----------------
L - tied note
x - dead note
g - grace note
(n) - ghost note
> - accentuded note
NH - natural harmonic
AH - artificial harmonic
TH - tapped harmonic
SH - semi harmonic
PH - pitch harmonic
h - hammer on
p - pull off
b - bend
br - bendRelease
pb - preBend
pbr - preBendRelease
brb - bendReleaseBend
\n/ - tremolo bar dip
\n - tremolo bar dive
-/n - tremolo bar Release up
/n\ - tremolo bar inverted dip
/n - tremolo bar return
-\n - tremolo bar Release down
S - shift slide
s - legato slide
/ - slide into from below or out of upwards
\ - slide into from above or out of downwards
~ - vibrato
W - wide vibrato
tr - trill
TP - tremolo picking
T - tapping
S - slap
P - pop
< - fade in
^ - brush up
v - brush down