TABULATORS TO ODIN

H Q Q H Q Q H Q Q
E||-----------------7----|---------------------------|---------------------|
B||--8--------10---------|--10b--------10pbr----8----|--7--------8----7----|
G||----------------------|---------------------------|---------------------|
D||----------------------|---------------------------|---------------------|
A||----------------------|---------------------------|---------------------|
E||----------------------|---------------------------|---------------------|


H H H Q Q H Q Q
--------------------|-----------------7----|----------------------|
--------------------|--8--------10---------|--7--------8b----8----|
--9--------8--------|----------------------|----------------------|
--------------------|----------------------|----------------------|
--------------------|----------------------|----------------------|
--------------------|----------------------|----------------------|


H Q Q W H Q Q
---------------------|-------------------|-----------------7----|
----------------7----|-------------------|--8--------10---------|
--8--------9---------|--9----------------|----------------------|
---------------------|-------------------|----------------------|
---------------------|-------------------|----------------------|
---------------------|-------------------|----------------------|


H Q Q H Q Q H H
---------------------------|---------------------|--------------------|
--10b--------10pbr----8----|--7--------8----7----|--------------------|
---------------------------|---------------------|--9--------8--------|
---------------------------|---------------------|--------------------|
---------------------------|---------------------|--------------------|
---------------------------|---------------------|--------------------|


H Q Q H Q Q H Q Q
------------------19----|-------------------------|------------------------|
--20--------22----------|--19--------20b----20----|------------------19----|
------------------------|-------------------------|--20--------21----------|
------------------------|-------------------------|------------------------|
------------------------|-------------------------|------------------------|
------------------------|-------------------------|------------------------|


W H Q Q H Q Q
--------------------|------------------19----|----------------------------|
--------------------|--20--------22----------|--22b--------22pbr----20----|
--21----------------|------------------------|----------------------------|
--------------------|------------------------|----------------------------|
--------------------|------------------------|----------------------------|
--------------------|------------------------|----------------------------|


H Q Q H H H Q Q
------------------------|----------------------|------------------19----|
--19--------20----19----|----------------------|--20--------22----------|
------------------------|--21--------20--------|------------------------|
------------------------|----------------------|------------------------|
------------------------|----------------------|------------------------|
------------------------|----------------------|------------------------|


H Q Q H Q Q W
-------------------------|------------------------|--------------------|
--19--------20b----20----|------------------19----|--------------------|
-------------------------|--20--------21----------|--21----------------|
-------------------------|------------------------|--------------------|
-------------------------|------------------------|--------------------|
-------------------------|------------------------|--------------------|



H Q Q H Q Q H Q Q
------------------19----|----------------------------|------------------------|
--20--------22----------|--22b--------22pbr----20----|--19--------20----19----|
------------------------|----------------------------|------------------------|
------------------------|----------------------------|------------------------|
------------------------|----------------------------|------------------------|
------------------------|----------------------------|------------------------|


H H H Q Q H Q Q
----------------------|------------------19----|-------------------------|
----------------------|--20--------22----------|--19--------20b----20----|
--21--------20--------|------------------------|-------------------------|
----------------------|------------------------|-------------------------|
----------------------|------------------------|-------------------------|
----------------------|------------------------|-------------------------|


H Q Q W H Q Q
------------------------|--------------------|------------------19----|
------------------19----|--------------------|--20--------22----------|
--20--------21----------|--21----------------|------------------------|
------------------------|--------------------|------------------------|
------------------------|--------------------|------------------------|
------------------------|--------------------|------------------------|


H Q Q H Q Q H H
----------------------------|------------------------|----------------------|
--22b--------22pbr----20----|--19--------20----19----|----------------------|
----------------------------|------------------------|--21--------20--------|
----------------------------|------------------------|----------------------|
----------------------------|------------------------|----------------------|
----------------------------|------------------------|----------------------|


H Q Q H Q Q H Q Q
------------------19----|-------------------------|------------------------|
--20--------22----------|--19--------20b----20----|------------------19----|
------------------------|-------------------------|--20--------21----------|
------------------------|-------------------------|------------------------|
------------------------|-------------------------|------------------------|
------------------------|-------------------------|------------------------|


W
--------------------|-------------------|-------------------|
--------------------|-------------------|-------------------|
--21----------------|-------------------|-------------------|
--------------------|-------------------|-------------------|
--------------------|-------------------|-------------------|
--------------------|-------------------|-------------------|


-------------------|-------------------|-------------------|-------------------|
-------------------|-------------------|-------------------|-------------------|
-------------------|-------------------|-------------------|-------------------|
-------------------|-------------------|-------------------|-------------------|
-------------------|-------------------|-------------------|-------------------|
-------------------|-------------------|-------------------|-------------------|


-------------------|-------------------|-------------------|-------------------|
-------------------|-------------------|-------------------|-------------------|
-------------------|-------------------|-------------------|-------------------|
-------------------|-------------------|-------------------|-------------------|
-------------------|-------------------|-------------------|-------------------|
-------------------|-------------------|-------------------|-------------------|



-------------------|-------||
-------------------|-------||
-------------------|-------||
-------------------|-------||
-------------------|-------||
-------------------|-------||




Duration Legend
---------------
W - whole
H - half
Q - quarter
E - 8th
S - 16th
T - 32nd
X - 64th
. - note dotted
|-n-| - n-tuplets


Tablature Legend
----------------
L - tied note
x - dead note
g - grace note
(n) - ghost note
> - accentuded note
NH - natural harmonic
AH - artificial harmonic
TH - tapped harmonic
SH - semi harmonic
PH - pitch harmonic
h - hammer on
p - pull off
b - bend
br - bendRelease
pb - preBend
pbr - preBendRelease
brb - bendReleaseBend
\n/ - tremolo bar dip
\n - tremolo bar dive
-/n - tremolo bar Release up
/n\ - tremolo bar inverted dip
/n - tremolo bar return
-\n - tremolo bar Release down
S - shift slide
s - legato slide
/ - slide into from below or out of upwards
\ - slide into from above or out of downwards
~ - vibrato
W - wide vibrato
tr - trill
TP - tremolo picking
T - tapping
S - slap
P - pop
< - fade in
^ - brush up
v - brush down