TABULATORS TO RETURN OF THE WARLORD

THANX TO MANOEL

Riff 1 (Intro):

e -------------------------------------------------------- |
B -------------------------------------------------------- |
G -------------------------------------------------------- |
D -------------------------------------------------------- |
A --9---12-12---9---7-7---9----12-12---------------------- |
E --7---10-10---7---5-5---7----10-10---------------------- |


Riff 2 (Verse):

e -------------------------------------------------------- |
B -------------------------------------------------------- |
G -------------------------------------------------------- |
D -------------7-7-9--------------12-11-12--9------------- |
A --10--9--2---5-5-7----10--9--2--10--9-10--7------------- |
E ---8--7--0-------------8--7--0-------------------------- |


e -------------------------------------------------------- |
B -------------------------------------------------------- |
G -------------------------------------------------------- |
D -------------7-7-9-------------------------------------- |
A --10--9--2---5-5-7----10--9--2-------------------------- |
E ---8--7--0-------------8--7--0-------------------------- |



Riff 3 (Chorus a):

e -------------------------------------------------------- |
B -------------------------------------------------------- |
G -------------------------------------------------------- |
D --12----7----9------------------------4----------------- |
A --10----5----7-----10-9-10-9-10-9-5---2---2------------- |
E --------------------8-7--8-7--8-7-3-------0------------- |

e -------------------------------------------------------- |
B -------------------------------------------------------- |
G -------------------------------------------------------- |
D ---9-7-9---9-12-9----9-7-9---9-12-9---9\---------------- |
A ---7-5-7---7-10-7----7-5-7---7-10-7---7\---------------- |
E -------------------------------------------------------- |
(slide down)


Riff 4 (Chorus b):

e -------------------------------------------------------- |
B -------------------------------------------------------- |
G -------------------------------------------------------- |
D --12----7----9------------------------4----------------- |
A --10----5----7-----10-9-10-9-10-9-5---2---2---9-7-9-2--- |
E --------------------8-7--8-7--8-7-3-------0---7-5-7-0--- |


Riff 5 (Filler):

e -------------------------------------------------------- |
B -------------------------------------------------------- |
G -------------------------------------------------------- |
D -------------------------------------------------------- |
A --9--7--5--2-------------------------------------------- |
E --7--5--3--0-------------------------------------------- |




2 x Riff 1
1 x Riff 2
1 x Riff 3
1 x Riff 2
1 x Riff 4
Harley Sound with Guitar Solo, ends with ...
1 x Riff 5
2 Lines of lyrics without Guitar
variation of Riff 3 ītil the end


Lyrics will follow, as the album is released ... (23. september in Europe)


Mark Guttenbrunner (e9325367@stud1.tuwien.ac.at)