TABULATORS TO RIDE THE DRAGON

Transcribed by: Manoel Manowar
Email: manoelmanowar@geocities.com
Home-Page: http://www.truemetal.org/manowarkill

If you have the solo or any corrections please e-mail.
You can find more Manowar tabs at: http://www.truemetal.org/manowarkill
Let's keep the fight for true metal around the world ! Hail And Kill !

Intro: Part I:
-|--------------------------------|-------------------------------------------
-|--------------------------------|-------------------------------------------
-|--------------------------------|-------------------------------------------
-|--5554-------------5554---------|--8889-------------------------------------
-|--3332-22222222222-3332-222-----|--6667---------------------5----7----------
-|-------00000000000------000--3~-|-------00000000000000000-3----5------------
Demon's blood...

------------------------------------------------------------------------------
------------------------------------------------------------------------------
------------------------------------------------------------------------------
----------------------------------------------2-------------------------------
-------------------5----7--0000000000000000-0------2--2222222222222222--------
-000000000000000-3----5--------------------------0----------------------------
Ancient gods... Beneath the... They look but...

Chorus:
-----------|------------------------------------------------------------------
-----------|------------------------------------------------------------------
-----------|------------------------------------------------------------------
--4-2------|----------------------5--------------------7----------------------
--2-0-5-4--|--2-------------------3--------------------5-----------------2----
------3-2--|--0----------------------------------------------------------0----
Wait for me... we'll meet in... by fire and... I'm...

------------------------------------------------------------------------------
------------------------------------------------------------------------------
------------------------------------------------------------------------------
--------------------5-------------7--------------4---------4-2----------------
--2-----------------3-------------5--------------2---------2-0-5-4------------
--0------------------------------------------------------------3-2--00000000--
Hell is... We cannot... fly to the...the storm We must...

Part II:
-|--------------------------------------------------------------------------|-
-|--------------------------------------------------------------------------|-
-|--------------------------------------------------------------------------|-
-|--8889------------------------------------------------------7-----9-------|-
-|--6667------777666-10-10-10-10-10-10--------7-7-7-7-7-7-----5--9--7-------|-
-|-------0000--------8--8--8--8--8--8---8885--5-5-5-5-5-5--------7-----0000-|-

The bass plays it on the guitar solo:
-|----------------------------------------------------------------------------
-|----------------------------------------------------------------------------
-|----------------------------------------------------------------------------
-|--999999999999977777777555555555555555557777777777999999999999999999--------

Hail And Kill !!!