TABULATORS TO SHELL SHOCK

If you have the solo or any correction, please send to me by e-mail. Hail to
all the brothers of metal all over the world and at Brazil !!!

Visit my home-page at: "http://www.truemetal.org/manowarkill"

Intro:
-|-----------------------------------------------|----------------------------
-|-----------------------------------------------|----------------------------
-|----------------------------------------------o|----------------------------
-|--5-----5-----5---5-----5-----5-----5---5-----o|---------------7------------
-|--3-0-0-3-0-0-3-0-3-0-0-3-0-0-3-0-0-3-0-3-0-0--|-------3-------5------------
-|-----------------------------------------------|-0-3-5---5-3----------------

Main Theme:
-|-----------------------------------------------|----------------------------
-|-----------------------------------------------|----------------------------
-|----------------------------------------------o|----------------------------
-|-5-----5-----5---5-----5-----5-----5---5------o|------7---------------------
-|-3-0-0-3-0-0-3-0-3-0-0-3-0-0-3-0-0-3-0-3-0-0---|--00--5---------------------
-|-----------------------------------------------|----------------------------

Part I - without distortion: (Well there's no charge for the haircut...)
-|-----------------------------|----------------------------------------------
-|-----------------------------|----------------------------------------------
-|--9-9---9-9---9-9---9-9-----o|----------------------------------------------
-|--7-7---7-7---7-7---7-7---7-o|----------------------------------------------
-|--------------------------5--|----------------------------------------------
-|-----------------------------|----------------------------------------------

Repeat Main Theme (Now I'm a ranger, not a stranger...).

Bridge: (But if they tell you that I've lost my mind...)
-|----------------------------------------------------------------------------
-|----------------------------------------------------------------------------
-|----------------------------------------------------------------------------
-|-10-10-10-10-10-10-10-9-9-9-9-9-9-9-5-5-5-5-5-5-5-7-7-7-7-7-7-7-------------
-|-8--8--8--8--8--8--8--7-7-7-7-7-7-7-3-3-3-3-3-3-3-5-5-5-5-5-5-5-------------
-|----------------------------------------------------------------------------

(About the time this letter gets home, I'll be gone, gone, yeah gone)
-|----------------------------------------------------------------------------
-|----------------------------------------------------------------------------
-|----------------------------------------------------------------------------
-|-10-10-10-10-10-10-10-9-9-9-9-9-9-9-----------------------------------------
-|-8--8--8--8--8--8--8--7-7-7-7-7-7-7--7-7-7--5-5-5---------------------------
-|-------------------------------------5-5-5--3-3-3---------------------------

On the chorus, play the Main Theme.