TABULATORS TO SLEIPNIR

Sleipnir TAB

Song : Sleipnir
Band : ManOwaR
Album : Gods Of War (2007)
Tabbed By : The Jah 23/2/2007
for the German Defenders of Steel

This is for guide purposes only
This is not an official Jah Nix Productions Release

email : nick@jahnixproductions.com
web@ : www.jahnixproductions.com

There Still alot of work to do on this, but at least we can now jam along
to this unbelievably cool tune!

DROPPED D

from guitar in :-
odins waiting for me
G-3-----5-----|-7------|
D-3-----5-----|-7------|
A-1-----3-----|-5------|
D-------------|-0------|

verse/solo
Dm Bb
G-7------|-(7)-------|--------|--------|
D-7------|-(7)-------|-8------|-8------|
A-5------|-(5)-------|-8------|-8------|
D-0------|-(0)-------|-8------|-8------|

Dm C G
G-7------|-(7)-------|---------|--------|
D-7------|-(7)-------|-10------|-5------|
A-5------|-(5)-------|-10------|-5------|
D-0------|-(0)-------|-10------|-5------| x2

pre chorus
Bb A Bb C C#
G--------|---------|----------|--------------|
D-8------|-7-------|-8--------|-10----11-----|
A-8------|-7-------|-8--------|-10----11-----|
D-8------|-7-------|-8--------|-10----11-----|

Chorus
Dm Bb F F E Dm
G-7------|--------|-10-----10--9-|-7---------|
D-7------|-8------|-10-----10--9-|-7---------|
A-5------|-8------|-8------8---7-|-5---------|
E-0------|-8------|--------------|-0---------|

Bb F A
G--------|--------|----------|------------|
D-8------|-3------|-7--------|-(7)--------|
A-8------|-3------|-7--------|-(7)--------|
E-8------|-3------|-7--------|-(7)--------|

Bb C F F E D C
G------------|----------|-----------|-------5-----|
D-8----10----|-3--------|-3----2----|-0-----5-----|
A-8----10----|-3--------|-3----2----|-0-----3-----|
E-8----10----|-3--------|-3----2----|-0-----------|

Bb C Dm
G-3---------|-5--------|-7----------|-(7)---------|
D-3---------|-5--------|-7----------|-(7)---------|
A-1---------|-3--------|-5----------|-(5)---------|
E-----------|----------|-0----------|-(0)---------|

Cool Riff

Dm
G-----------5--7-7-5-5-|
D-7\s\--0---5--7-7-5-5-|
A-------0--------------|
E-------0--------------| x4

Ill update this soon with order and the extra ornamentals in the verse

email : nick@jahnixproductions.com
web@ : www.jahnixproductions.com