TABULATORS TO STING OF THE BUMBLEBEE

(Micolai Rimsky - Korsakoff)
THANX TO MANOEL

(arr. by A. Gluklikh)
Guitar tabbed by Rodrigo Arntz rarntz@usa.net

E||--12-11-10-9-10-9-8-7-|--8-7-6-5-4-3-2-1-|--0---------------|
B||----------------------|------------------|----4-3-2-3-2-1-0-|
G||----------------------|------------------|------------------|
D||----------------------|------------------|------------------|
A||----------------------|------------------|------------------|
D||----------------------|------------------|------------------|

------------------||--------------------||-------------------|
--1---------------||--------------------||-------------------|
----4-3-2-1-0-----||*------------------*||*------------------|
--------------4-3-||*--2-1-0---0-------*||*--2-1-0-----3-2-1-|
------------------||---------4---4-3-2--||---------4-3-------|
------------------||--------------------||-------------------|

-------------------||------------------|------------------|------------------|
-------------------||------------------|------------------|------------------|
------------------*||------------------|------------------|------------------|
--2-1-0-------0-1-*||--2-1-0---0-------|------0-1-2-3-2-1-|--2-1-0---0-------|
--------4-3-4------||--------4---4-3-2-|--3-4-------------|--------4---4-3-2-|
-------------------||------------------|------------------|------------------|

------------------||-------------------|-------------------||
------------------||-------------------|-------------------||
--------------0-1-||*--2-1-0-----3-2-1-|--2-1-0-------0-1-*||
------0-1-2-4-----||*--------4-3-------|--------4-3-4-----*||
--3-4-------------||-------------------|-------------------||
------------------||-------------------|-------------------||

-------------------|-------------------||------------------|------------------|
-------------------|-------------------||------------------|------------------|
*--2-1-0---0-------|------0-1-2-3-2-1-*||--2-----------2---|--3---------------|
*--------4---4-3-2-|--3-4-------------*||------------------|------------------|
-------------------|-------------------||----0-0-0-0-0---0-|----1-1-1-1-1-1-1-|
-------------------|-------------------||------------------|------------------|

------------------|------------------||--------------------||
------------------|------------------||--------------------||
--2-------2-------|--3---------------||*--2-3-2-1-2-3-2-1-*||
------------------|------------------||*------------------*||
----0-0-0---0-0-0-|----1-1-1-1-1-1-1-||--------------------||
------------------|------------------||--------------------||

--------------------||------------------|------------------|------------------|
-------0-1-2-1-0----||--------------3---|--4---------------|--3-------3-------|
*--2-3-----------3-*||--2---------------|------------------|------------------|
*------------------*||----0-0-0-0-0---0-|----1-1-1-1-1-1-1-|----0-0-0---0-0-0-|
--------------------||------------------|------------------|------------------|
--------------------||------------------|------------------|------------------|

------------------||--------------------||-------0-1-2-1-0----||
--4---------------||---3-4-3-2-3-4-3-2--||---3-4-----------4--||
------------------||*------------------*||*------------------*||
----1-1-1-1-1-1-1-||*------------------*||*------------------*||
------------------||--------------------||--------------------||
------------------||--------------------||--------------------||

------------------|------------------|----9-8-7-8-7-6-5-|--6-7-8-9-8-9-10-11-|
--3-2-1-0---4-3-2-|--3-2-1-0---------|------------------|--------------------|
----------3-------|----------3-4-5-6-|--7---------------|--------------------|
------------------|------------------|------------------|--------------------|
------------------|------------------|------------------|--------------------|
------------------|------------------|------------------|--------------------|

--12-11-10-9-10-9-8-7-|--8-7-6-5---------||--------------------||
----------------------|----------9-8-7-6-||---5-6-5-4-5-6-5-4--||
----------------------|------------------||*------------------*||
----------------------|------------------||*------------------*||
----------------------|------------------||--------------------||
----------------------|------------------||--------------------||

----------0-------|------------------|------------------|------------------|
--5-6-5-4---------|------------------|------------------|------------------|
------------------|------------------|------------------|------------------|
------------3-2-1-|--2-3-2-1-2-3-2-1-|--2-1-0---0-------|------------------|
------------------|------------------|--------4---4-3-2-|--3-2-1-0---------|
------------------|------------------|------------------|----------6-5-4-3-|

3x
|--------------------||------------------|------------------|
|--------------------||------------------|------------------|
|*------------------*||------------------|----------------0-|
|*------------------*||------------------|------0-1-2-3-4---|
|--------------------||------------0-1-2-|--3-4-------------|
|---2-3-2-1-2-3-2-1--||--2-3-4-5-6-------|------------------|

|--------------------||------------------||---0---------1-0---|
|---------0-1-2-3-4--||--5-6-5-4-5-6-5-4-||-----4-3-2-1-----4-|
|*--1-2-3-----------*||------------------||*------------------|
|*------------------*||------------------||*------------------|
|--------------------||------------------||-------------------|
|--------------------||------------------||-------------------|

--0----------------||--0---------------|----------0-1-0---|--0---------------|
----4-3-2-1-2-3-4--||----4-3-2-3-2-1-0-|--1-2-3-4-------3-|----4-3-2-3-2-1-0-|
------------------*||------------------|------------------|------------------|
------------------*||------------------|------------------|------------------|
-------------------||------------------|------------------|------------------|
-------------------||------------------|------------------|------------------|

----------0-------||---------------6------|---------------------||
--1-2-3-4---7-8-9-||---10-9-8-7------10-9-|--10-9-8-7----7-8-9--||
------------------||*-----------10--------|-----------10-------*||
------------------||*---------------------|--------------------*||
------------------||----------------------|---------------------||
------------------||----------------------|---------------------||

-------------------|---------------------|-------------------|
--10-9-8-7-8-7-6-5-|--6-7-8-9-10-11-10-9-|--10-9-8-7-6-7-8-9-|
-------------------|---------------------|-------------------|
-------------------|---------------------|-------------------|
-------------------|---------------------|-------------------|
-------------------|---------------------|-------------------|

-----------10-12-13-12-11-||---12-11-10-9----13-12-11-|
--10-12-13----------------||--------------13----------|
--------------------------||*-------------------------|
--------------------------||*-------------------------|
--------------------------||--------------------------|
--------------------------||--------------------------|

--12-11-10-9-8-9-10-11--||---12-------------8-9-|--10-9-8-7-8-7-6-5-|
------------------------||-------9-10-11-12-----|-------------------|
-----------------------*||*---------------------|-------------------|
-----------------------*||*---------------------|-------------------|
------------------------||----------------------|-------------------|
------------------------||----------------------|-------------------|

2x
--4-5-6-7-8-9-10-11-|--12-13-12-11-12-13-12-11--||--12-------------8-9-|
--------------------|---------------------------||------9-10-11-12-----|
--------------------|--------------------------*||---------------------|
--------------------|--------------------------*||---------------------|
--------------------|---------------------------||---------------------|
--------------------|---------------------------||---------------------|

--10-9-8-7-8-7-6-5-|--4-5-6-7-8-9-10-11-|--12-13-12-11-12-14-15-16-|
-------------------|--------------------|--------------------------|
-------------------|--------------------|--------------------------|
-------------------|--------------------|--------------------------|
-------------------|--------------------|--------------------------|
-------------------|--------------------|--------------------------|

--17-16-15-14-15-14-13-12-|--13-12-11-10-9-8-7-6-|-------------------|
--------------------------|----------------------|--10-9-8-7-8-7-6-5-|
--------------------------|----------------------|-------------------|
--------------------------|----------------------|-------------------|
--------------------------|----------------------|-------------------|
--------------------------|----------------------|-------------------|

------------------|------------------|----5-------------|--------------------|
--6-5-4-3---------|------------------|------------------|--------------------|
----------6-5-4-3-|--2-3-2-1-2-3-2-1-|--2---3-4-5-6-7-8-|--9-10-9-8-9-10-9-8-|
------------------|------------------|------------------|--------------------|
------------------|------------------|------------------|--------------------|
------------------|------------------|------------------|--------------------|

----12---------------|-----------------|------------------|
-----------------8-9-|--10-------------|------------------|
--9----8-9-10-11-----|-----------------|----------5-6-7-8-|
---------------------|-----------------|--6-7-8-9---------|
---------------------|--------7-8-9-10-|------------------|
---------------------|-----------------|------------------|

------------------------|-----------------14-15-16-|--17--------|--5--------|
-------------9-10-11-12-|--13-14-15-16-17----------|------------|--5--------|
--9-10-11-12------------|--------------------------|------------|--5--------|
------------------------|--------------------------|------------|--7--------|
------------------------|--------------------------|------------|-----------|
------------------------|--------------------------|------------|-----------|

-----------||
-----------||
-----------||
-----------||
--0--------||
-----------||