TABULATORS TO SWORDS IN THE WIND

Chitarra solista
Accorda la chitarra in Re



W W W
D||-------------------|-------------------|-------------------|
A||-------------------|-------------------|-------------------|
F||-------------------|-------------------|-------------------|
C||-------------------|-------------------|-------------------|
G||-------------------|-------------------|-------------------|
D||-------------------|-------------------|-------------------|


W W W W
-------------------|-------------------|-------------------|-------------------|
-------------------|-------------------|-------------------|-------------------|
-------------------|-------------------|-------------------|-------------------|
-------------------|-------------------|-------------------|-------------------|
-------------------|-------------------|-------------------|-------------------|
-------------------|-------------------|-------------------|-------------------|


W W W W
-------------------|-------------------|-------------------|-------------------|
-------------------|-------------------|-------------------|-------------------|
-------------------|-------------------|-------------------|-------------------|
-------------------|-------------------|-------------------|-------------------|
-------------------|-------------------|-------------------|-------------------|
-------------------|-------------------|-------------------|-------------------|


W W W W
-------------------|-------------------|-------------------|-------------------|
-------------------|-------------------|-------------------|-------------------|
-------------------|-------------------|-------------------|-------------------|
-------------------|-------------------|-------------------|-------------------|
-------------------|-------------------|-------------------|-------------------|
-------------------|-------------------|-------------------|-------------------|


W W W W
-------------------|-------------------|-------------------|-------------------|
-------------------|-------------------|-------------------|-------------------|
-------------------|-------------------|-------------------|-------------------|
-------------------|-------------------|-------------------|-------------------|
-------------------|-------------------|-------------------|-------------------|
-------------------|-------------------|-------------------|-------------------|


W W W W
-------------------|-------------------|-------------------|-------------------|
-------------------|-------------------|-------------------|-------------------|
-------------------|-------------------|-------------------|-------------------|
-------------------|-------------------|-------------------|-------------------|
-------------------|-------------------|-------------------|-------------------|
-------------------|-------------------|-------------------|-------------------|


W W W W
-------------------|-------------------|-------------------|-------------------|
-------------------|-------------------|-------------------|-------------------|
-------------------|-------------------|-------------------|-------------------|
-------------------|-------------------|-------------------|-------------------|
-------------------|-------------------|-------------------|-------------------|
-------------------|-------------------|-------------------|-------------------|


W W W
-------------------|--------------------|--------------------|
-------------------|--17----------------|--------------------|
-------------------|--------------------|--16----------------|
-------------------|--------------------|--------------------|
-------------------|--------------------|--------------------|
-------------------|--------------------|--------------------|


H H H Q. E W
----------------------|-------------------19--|--24----------------|
--20--------19--------|--17--------L----------|--------------------|
----------------------|-----------------------|--------------------|
----------------------|-----------------------|--------------------|
----------------------|-----------------------|--------------------|
----------------------|-----------------------|--------------------|


W W W
--19----------------|--15b----------------|--L----------------|
--------------------|---------------------|-------------------|
--------------------|---------------------|-------------------|
--------------------|---------------------|-------------------|
--------------------|---------------------|-------------------|
--------------------|---------------------|-------------------|


W W W
-------------------|-------------------|-------------------|
-------------------|-------------------|-------------------|
-------------------|-------------------|-------------------|
-------------------|-------------------|-------------------|
-------------------|-------------------|-------------------|
-------------------|-------------------|-------------------|


H H W W
-----------12pbr--------|---L----------------|-------------------|
------------------------|--------------------|-------------------|
------------------------|--------------------|-------------------|
------------------------|--------------------|-------------------|
------------------------|--------------------|-------------------|
------------------------|--------------------|-------------------|


W H H W
-------------------|---------------------|--------------------|
-------------------|---------------------|--------------------|
-------------------|-----------9S--------|--12----------------|
-------------------|---------------------|--------------------|
-------------------|---------------------|--------------------|
-------------------|---------------------|--------------------|


W H Q Q W
--------------------|--11--------12----14----|--12----------------|
--12----------------|------------------------|--------------------|
--------------------|------------------------|--------------------|
--------------------|------------------------|--------------------|
--------------------|------------------------|--------------------|
--------------------|------------------------|--------------------|


W H. E E H Q. E
--12----------------|--15------------14--12--|--14--------L------15--|
--------------------|------------------------|-----------------------|
--------------------|------------------------|-----------------------|
--------------------|------------------------|-----------------------|
--------------------|------------------------|-----------------------|
--------------------|------------------------|-----------------------|


W W W
--17----------------|-------------------|-------------------|
--------------------|-------------------|-------------------|
--------------------|-------------------|-------------------|
--------------------|-------------------|-------------------|
--------------------|-------------------|-------------------|
--------------------|-------------------|-------------------|


W W W W
-------------------|-------------------|-------------------|-------------------|
-------------------|-------------------|-------------------|-------------------|
-------------------|-------------------|-------------------|-------------------|
-------------------|-------------------|-------------------|-------------------|
-------------------|-------------------|-------------------|-------------------|
-------------------|-------------------|-------------------|-------------------|


W W W W
-------------------|-------------------|-------------------|-------------------|
-------------------|-------------------|-------------------|-------------------|
-------------------|-------------------|-------------------|-------------------|
-------------------|-------------------|-------------------|-------------------|
-------------------|-------------------|-------------------|-------------------|
-------------------|-------------------|-------------------|-------------------|


W W W W
-------------------|-------------------|-------------------|-------------------|
-------------------|-------------------|-------------------|-------------------|
-------------------|-------------------|-------------------|-------------------|
-------------------|-------------------|-------------------|-------------------|
-------------------|-------------------|-------------------|-------------------|
-------------------|-------------------|-------------------|-------------------|


W W W W
-------------------|-------------------|-------------------|-------------------|
-------------------|-------------------|-------------------|-------------------|
-------------------|-------------------|-------------------|-------------------|
-------------------|-------------------|-------------------|-------------------|
-------------------|-------------------|-------------------|-------------------|
-------------------|-------------------|-------------------|-------------------|


H Q E E H Q. E
--------------------------|---------------------------|
--------------------------|---------------------------|
----------------<>9--<>7--|--<>9b--------L------------|
--------------------------|---------------------------|
--------------------------|---------------------<>10--|
--------------------------|---------------------------|


\1
|--------3--------|
Q Q Q Q. S S W
--------------------------------------------------|----------------------|
--------------------------------------------------|----------------------|
--------------------------------------------------|----------------------|
--------------------------------------------------|----------------------|
--<>12b----<>12b----<>12b----<>12b------<>12-<>10-|----------------------|
--------------------------------------------------|--<>12----------------|


\1
|------3-----| |-----3----|
H Q Q Q Q Q Q H
--10b~--------10b----10----------|----------------------------|
---------------------------12----|----------------------------|
---------------------------------|--14----12----L----L--------|
---------------------------------|----------------------------|
---------------------------------|----------------------------|
---------------------------------|----------------------------|


\1
|---3---| |---3---| |---3--| |---3---|
E E E E E E E E E E E E H H
--------------------------12--10--8--15--14--12--|--10b~-----------------|
--13--12--12--15--13--12-------------------------|-----------------------|
-------------------------------------------------|--------------9--------|
-------------------------------------------------|-----------------------|
-------------------------------------------------|-----------------------|
-------------------------------------------------|-----------------------|


\1
|----3----| |----3----|
H Q Q Q W Q Q Q Q. E
--------------------------|-------------------|--------------5----5br~------3--|
----------------7----8----|-------------------|---------7----------------------|
--9--------9--------------|--7----------------|--5g8---------------------------|
--------------------------|-------------------|--------------------------------|
--------------------------|-------------------|--------------------------------|
--------------------------|-------------------|--------------------------------|


H Q E. S H Q. E
--10b--------10br----17br---15-|--17b--------17br------15--|
-------------------------------|---------------------------|
-------------------------------|---------------------------|
-------------------------------|---------------------------|
-------------------------------|---------------------------|
-------------------------------|---------------------------|


\1
|-----3-----|
H Q Q Q W W
--19b--------21----19----21----|--21b----------------|----------------------|
-------------------------------|---------------------|----------------------|
-------------------------------|---------------------|--<>19----------------|
-------------------------------|---------------------|----------------------|
-------------------------------|---------------------|----------------------|
-------------------------------|---------------------|----------------------|


W W H Q Q
-------------------|---------------------|---------------------|
-------------------|---------------------|---------------------|
-------------------|---------------------|---------------------|
-------------------|---------------------|---------------------|
-------------------|---------------------|---------------------|
--0----------------|--5br----------------|--L--------3----2----|


\1
W W W
-------------------|-------------------|---------------------|
-------------------|-------------------|---------------------|
-------------------|-------------------|---------------------|
-------------------|-------------------|---------------------|
-------------------|-------------------|---------------------|
--0----------------|--0----------------|--5br----------------|


\1
H Q Q W W
---------------------|-------------------|-------------------|
---------------------|-------------------|-------------------|
---------------------|-------------------|-------------------|
---------------------|-------------------|-------------------|
---------------------|-------------------|-------------------|
--L--------3----2----|--0----------------|-------------------|


W W W W
-------------------|-------------------|-------------------|-------------------|
-------------------|-------------------|-------------------|-------------------|
-------------------|-------------------|-------------------|-------------------|
-------------------|-------------------|-------------------|-------------------|
-------------------|-------------------|-------------------|-------------------|
-------------------|-------------------|-------------------|-------------------|


W W W W
-------------------|-------------------|-------------------|-------------------|
-------------------|-------------------|-------------------|-------------------|
-------------------|-------------------|-------------------|-------------------|
-------------------|-------------------|-------------------|-------------------|
-------------------|-------------------|-------------------|-------------------|
-------------------|-------------------|-------------------|-------------------|


W W W W
-------------------|-------------------|-------------------|-------------------|
-------------------|-------------------|-------------------|-------------------|
-------------------|-------------------|-------------------|-------------------|
-------------------|-------------------|-------------------|-------------------|
-------------------|-------------------|-------------------|-------------------|
-------------------|-------------------|-------------------|-------------------|


W W W W
-------------------|-------------------|-------------------|-------------------|
-------------------|-------------------|-------------------|-------------------|
-------------------|-------------------|-------------------|-------------------|
-------------------|-------------------|-------------------|-------------------|
-------------------|-------------------|-------------------|-------------------|
-------------------|-------------------|-------------------|-------------------|


W W W W
-------------------|-------------------|-------------------|-------------------|
-------------------|-------------------|-------------------|-------------------|
-------------------|-------------------|-------------------|-------------------|
-------------------|-------------------|-------------------|-------------------|
-------------------|-------------------|-------------------|-------------------|
-------------------|-------------------|-------------------|-------------------|


W W W W
-------------------|-------------------|-------------------|-------------------|
-------------------|-------------------|-------------------|-------------------|
-------------------|-------------------|-------------------|-------------------|
-------------------|-------------------|-------------------|-------------------|
-------------------|-------------------|-------------------|-------------------|
-------------------|-------------------|-------------------|-------------------|


W W W W
-------------------|-------------------|-------------------|-------------------|
-------------------|-------------------|-------------------|-------------------|
-------------------|-------------------|-------------------|-------------------|
-------------------|-------------------|-------------------|-------------------|
-------------------|-------------------|-------------------|-------------------|
-------------------|-------------------|-------------------|-------------------|


W W W W
-------------------|-------------------|-------------------|-------------------|
-------------------|-------------------|-------------------|-------------------|
-------------------|-------------------|-------------------|-------------------|
-------------------|-------------------|-------------------|-------------------|
-------------------|-------------------|-------------------|-------------------|
-------------------|-------------------|-------------------|-------------------|


W W W W
-------------------|-------------------|-------------------|-------------------|
-------------------|-------------------|-------------------|-------------------|
-------------------|-------------------|-------------------|-------------------|
-------------------|-------------------|-------------------|-------------------|
-------------------|-------------------|-------------------|-------------------|
-------------------|-------------------|-------------------|-------------------|


W W W W
-------------------|-------------------|-------------------|-------------------|
-------------------|-------------------|-------------------|-------------------|
-------------------|-------------------|-------------------|-------------------|
-------------------|-------------------|-------------------|-------------------|
-------------------|-------------------|-------------------|-------------------|
-------------------|-------------------|-------------------|-------------------|


W W H E E E E
-------------------|-------------------|-----------15--14--12------|
-------------------|-------------------|-----------------------15--|
-------------------|-------------------|---------------------------|
-------------------|-------------------|---------------------------|
-------------------|-------------------|---------------------------|
-------------------|-------------------|---------------------------|


H. E E H E E E E
--------------------------|---------------------------|
--15b~------------12--15--|--12--------L--------------|
--------------------------|---------------12--14--12--|
--------------------------|---------------------------|
--------------------------|---------------------------|
--------------------------|---------------------------|


Q E H S S H E E E E
------------------------------|----------------------------|
---------15-------------------|----------------------------|
--14b--------14br--------L-12-|----------------------------|
------------------------------|--14--------14--12------12--|
------------------------------|--------------------14------|
------------------------------|----------------------------|


W W
--------------------|--------------------|
--------------------|--------------------|
--------------------|--------------------|
--14----------------|--12----------------|
--------------------|--------------------|
--------------------|--------------------|


|-----3-----| |-----3-----|
Q Q Q Q Q Q W
--------------------------------------|--------------------|
--------------------------------------|--------------------|
--------------14----16----14----12----|--------------------|
--------13----------------------------|--14----------------|
--14----------------------------------|--------------------|
--------------------------------------|--------------------|


W H. E E W
--------------------|-----------------------|--------------------|
--17----------------|--L------------19--20--|--19----------------|
--------------------|-----------------------|--------------------|
--------------------|-----------------------|--------------------|
--------------------|-----------------------|--------------------|
--------------------|-----------------------|--------------------|


|---3---| |---3---|
H E E E E E E H. E S S
-----------------------17--19--20--|--20b------------L--20-19-|
--L--------17--19--20--------------|--------------------------|
-----------------------------------|--------------------------|
-----------------------------------|--------------------------|
-----------------------------------|--------------------------|
-----------------------------------|--------------------------|


H. E S S H H H E E E E
--20------------L--19-17-|--15br--------15--------|--12--------12--------------|
-------------------------|------------------------|----------------15--12--15--|
-------------------------|------------------------|----------------------------|
-------------------------|------------------------|----------------------------|
-------------------------|------------------------|----------------------------|
-------------------------|------------------------|----------------------------|


H H H E E E S S
-------------------------|------------------------------|
--15b--------15br--------|--15--------15--12--12--12-12-|
-------------------------|------------------------------|
-------------------------|------------------------------|
-------------------------|------------------------------|
-------------------------|------------------------------|


\1
|---3---|
Q. S S Q E E E H. E E
------------------------------------|-----------------------|
--12------12-12-14br----12----------|-------------------17--|
----------------------------14--12--|-----------------------|
------------------------------------|--14------------L------|
------------------------------------|-----------------------|
------------------------------------|-----------------------|


|---3---| |---3---| |---3---| |---3---|
E E E E E E E E E E E E
--20----------19----------17----------15----------|
------17--15------17--15------17--15------13--12--|
--------------------------------------------------|
--------------------------------------------------|
--------------------------------------------------|
--------------------------------------------------|


|---3---| |---3---| |---3--| |--3--|
E E E E E E E E E E E E W
--14----------12----------10---------8--------|--------------------|
------12--10------12--10------10--8-----8--7--|--12----------------|
----------------------------------------------|--------------------|
----------------------------------------------|--------------------|
----------------------------------------------|--------------------|
----------------------------------------------|--------------------|


Da qui in poi non sento pił niente...
W W
----------------------------------------|-------------------|
----------------------------------------|-------------------|
----------------------------------------|-------------------|
----------------------------------------|-------------------|
----------------------------------------|-------------------|
----------------------------------------|-------------------|


W W W
-------------------|-------------------|-------------------||
-------------------|-------------------|-------------------||
-------------------|-------------------|-------------------||
-------------------|-------------------|-------------------||
-------------------|-------------------|-------------------||
-------------------|-------------------|-------------------||




Duration Legend
---------------
W - whole
H - half
Q - quarter
E - 8th
S - 16th
T - 32nd
X - 64th
. - note dotted
|-n-| - n-tuplets


Tablature Legend
----------------
L - tied note
x - dead note
g - grace note
(n) - ghost note
> - accentuded note
NH - natural harmonic
AH - artificial harmonic
TH - tapped harmonic
SH - semi harmonic
PH - pitch harmonic
h - hammer on
p - pull off
b - bend
br - bendRelease
pb - preBend
pbr - preBendRelease
brb - bendReleaseBend

\n/ - tremolo bar dip
\n - tremolo bar dive
-/n - tremolo bar Release up
/n\ - tremolo bar inverted dip
/n - tremolo bar return
-\n - tremolo bar Release down
S - shift slide
s - legato slide
/ - slide into from below or out of upwards
\ - slide into from above or out of downwards
~ - vibrato
W - wide vibrato
tr - trill
TP - tremolo picking
T - tapping
S - slap
P - pop
< - fade in
^ - brush up
v - brush down

Accorda la chitarra in Re



Mi FTB
E E E E E E E E E E E E E E E E
D||------------------0-----------|--------------0-----------|
A||---------------------0--------|-----------------0--------|
F||---------------0--------0-----|-----------0--------0-----|
C||------------4--------------4--|--------4--------------4--|
G||---------2--------------------|-----2--------------------|
D||--0---------------------------|--0-----------------------|


E E E E E E E E E E E E E E E E E E E E H
--------------0-----------|--------------0-----------|--------------0--------|
-----------------0--------|-----------------0--------|-----------------------|
-----------0--------0-----|-----------0--------0-----|-----------0-----------|
--------4--------------4--|--------4--------------4--|--------4--------------|
-----2--------------------|-----2--------------------|-----2-----------------|
--0-----------------------|--0-----------------------|--0--------------------|


Do Si Mi FTB
Q. E H E E E E H E E E E E E E E
------------0--------|--------------2--------|------------------0-----------|
---------0-----------|-----------4-----------|---------------------0--------|
---------------------|--------4--------------|---------------0--------0-----|
---------------------|-----4-----------------|------------4--------------4--|
--3------------------|--2--------------------|---------2--------------------|
---------------------|-----------------------|--0---------------------------|


Do strano Mi FTB
E E E E H Q. E H E E E E H
--------------0--------|---------------0--------|------------------2--------|
-----------------------|------------0-----------|---------------4-----------|
-----------0-----------|------------------------|------------4--------------|
--------4--------------|------------------------|---------4-----------------|
-----2-----------------|--3---------------------|--2------------------------|
--0--------------------|------------------------|---------------------------|


Do strano
E E E E E E E E E E E E H Q. E H
--------------0-----------|--------------0--------|---------------0--------|
-----------------0--------|-----------------------|------------0-----------|
-----------0--------0-----|-----------0-----------|------------------------|
--------4--------------4--|--------4--------------|------------------------|
-----2--------------------|-----2-----------------|--3---------------------|
--0-----------------------|--0--------------------|------------------------|


Si Mi FTB
E E E E H E E E E E E E E E E E E H
--------------2--------|------------------0-----------|--------------0--------|
-----------4-----------|---------------------0--------|-----------------------|
--------4--------------|---------------0--------0-----|-----------0-----------|
-----4-----------------|------------4--------------4--|--------4--------------|
--2--------------------|---------2--------------------|-----2-----------------|
-----------------------|--0---------------------------|--0--------------------|


Do strano Si Mi FTB
Q. E H E E E E H E E E E E E E E
---------------0--------|--------------2--------|------------------0-----------|
------------0-----------|-----------4-----------|---------------------0--------|
------------------------|--------4--------------|---------------0--------0-----|
------------------------|-----4-----------------|------------4--------------4--|
--3---------------------|--2--------------------|---------2--------------------|
------------------------|-----------------------|--0---------------------------|


La min Sol+
E E E E E E E E E E E E E E E E
------------------0-----------|----------------3-----------|
---------------1-----1--------|-------------3-----3--------|
------------2-----------2-----|----------0-----------0-----|
---------2-----------------2--|-------0-----------------0--|
--0---------------------------|--2-------------------------|
------------------------------|----------------------------|


Si Mi FTB
E E E E E E E E E E E E E E E E
--------------2-----------|------------------0-----------|
-----------4-----4--------|---------------------0--------|
--------4-----------4-----|---------------0--------0-----|
-----4-----------------4--|------------4--------------4--|
--2-----------------------|---------2--------------------|
--------------------------|--0---------------------------|


Do# strano
E E E E E E E E E E E E E E E E
----------------------0-----------|--------------0-----------|
-------------------0-----0--------|-----------0-----0--------|
----------------0-----------0-----|--------0-----------0-----|
-------------2-----------------2--|-----2-----------------2--|
--4-------------------------------|--4-----------------------|
----------------------------------|--------------------------|


Si Mi FTB
E E E E E E E E W E E E E E E E E
--------------2-----------|-------------------|------------------0-----------|
-----------4-----4--------|-------------------|---------------------0--------|
--------4-----------4-----|-------------------|---------------0--------0-----|
-----4-----------------4--|--L----------------|------------4--------------4--|
--2-----------------------|-------------------|---------2--------------------|
--------------------------|-------------------|--0---------------------------|


Do strano Si
E E E E E E E E E E E E E E E E
---------------------0-----------|--------------2-----------|
------------------0-----0--------|-----------4-----4--------|
---------------0-----------0-----|--------4-----------4-----|
------------4-----------------4--|-----4-----------------4--|
--3------------------------------|--2-----------------------|
---------------------------------|--------------------------|


Mi FTB
E E E E E E E E E E E E E E E E
------------------0-----------|--------------0-----------|
---------------------0--------|-----------------0--------|
---------------0--------0-----|-----------0--------0-----|
------------4--------------4--|--------4--------------4--|
---------2--------------------|-----2--------------------|
--0---------------------------|--0-----------------------|


Do strano Si
E E E E E E E E E E E E E E E E
---------------------0-----------|--------------2-----------|
------------------0-----0--------|-----------4-----4--------|
---------------0-----------0-----|--------4-----------4-----|
------------4-----------------4--|-----4-----------------4--|
--3------------------------------|--2-----------------------|
---------------------------------|--------------------------|


Mi FTB
E E E E E E E E E E E E E E E E
------------------0-----------|--------------0-----------|
---------------------0--------|-----------------0--------|
---------------0--------0-----|-----------0--------0-----|
------------4--------------4--|--------4--------------4--|
---------2--------------------|-----2--------------------|
--0---------------------------|--0-----------------------|


Do strano Si
E E E E E E E E E E E E E E E E
---------------------0-----------|--------------2-----------|
------------------0-----0--------|-----------4-----4--------|
---------------0-----------0-----|--------4-----------4-----|
------------4-----------------4--|-----4-----------------4--|
--3------------------------------|--2-----------------------|
---------------------------------|--------------------------|


Mi FTB
E E E E E E E E E E E E E E E E
------------------0-----------|--------------0-----------|
---------------------0--------|-----------------0--------|
---------------0--------0-----|-----------0--------0-----|
------------4--------------4--|--------4--------------4--|
---------2--------------------|-----2--------------------|
--0---------------------------|--0-----------------------|


Do strano Si
E E E E E E E E E E E E E E E E
---------------------0-----------|--------------2-----------|
------------------0-----0--------|-----------4-----4--------|
---------------0-----------0-----|--------4-----------4-----|
------------4-----------------4--|-----4-----------------4--|
--3------------------------------|--2-----------------------|
---------------------------------|--------------------------|


Mi FTB La min
E E E E E E E E E E E E E E E E
------------------0-----------|------------------0-----------|
---------------------0--------|---------------1-----1--------|
---------------0--------0-----|------------2-----------2-----|
------------4--------------4--|---------2-----------------2--|
---------2--------------------|--0---------------------------|
--0---------------------------|------------------------------|


Sol+ Si
E E E E E E E E E E E E E E E E
----------------3-----------|--------------2-----------|
-------------3-----3--------|-----------4-----4--------|
----------0-----------0-----|--------4-----------4-----|
-------0-----------------0--|-----4-----------------4--|
--2-------------------------|--2-----------------------|
----------------------------|--------------------------|


Mi FTB Do
E E E E E E E E E E E E E E E E
------------------0-----------|--------------0-----------|
---------------------0--------|-----------1-----1--------|
---------------0--------0-----|--------0-----------0-----|
------------4--------------4--|-----2-----------------2--|
---------2--------------------|--3-----------------------|
--0---------------------------|--------------------------|


La min Si
E E E E E E E E E E E E E E E E W
------------------0-----------|--------------2-----------|-------------------|
---------------1-----1--------|-----------4-----4--------|-------------------|
------------2-----------2-----|--------4-----------4-----|-------------------|
---------2-----------------2--|-----4-----------------4--|--L----------------|
--0---------------------------|--2-----------------------|-------------------|
------------------------------|--------------------------|-------------------|


I will
Do Re
E E E E E E E E E E E E S S E E E
--------------0---------------|--------------2h-3p-2--------|
-----------1---------1--------|--------3--------------3-----|
--------0---------------0-----|-----2-----2--------------2--|
-----2---------------------2--|--0--------------------------|
--3---------------------------|-----------------------------|
------------------------------|-----------------------------|


Sol Fa# Mi FTB
E E E E E E E E E E E E E E E E
---------3------------2-----|------------------0-----------|
------------0------------0--|---------------------0--------|
----------------------------|---------------0--------0-----|
----------------------------|------------4--------------4--|
------2-----------2---------|---------2--------------------|
--3------------2------------|--0---------------------------|


Do Re
E E E E E E E E E E E E S S E E E
--------------0-----------|--------------2h-3p-2--------|
-----------1-----1--------|--------3--------------3-----|
--------0-----------0-----|-----2-----2--------------2--|
-----2-----------------2--|--0--------------------------|
--3-----------------------|-----------------------------|
--------------------------|-----------------------------|


Sol Fa# Mi FTB
E E E E E E E E E E E E E E E E
---------3------------2-----|------------------0-----------|
------------0------------0--|---------------------0--------|
----------------------------|---------------0--------0-----|
----------------------------|------------4--------------4--|
------2------------2--------|---------2--------------------|
--3------------2------------|--0---------------------------|


Do Re
E E E E E E E E E E E E S S E E E
--------------0-----------|--------------2h-3p-2--------|
-----------1-----1--------|--------3--------------3-----|
--------0-----------0-----|-----2-----2--------------2--|
-----2-----------------2--|--0--------------------------|
--3-----------------------|-----------------------------|
--------------------------|-----------------------------|


Si Mi FTB
E E E E E E E E E E E E E E E E
--------------2-----------|------------------0-----------|
-----------4-----4--------|---------------------0--------|
--------4-----------4-----|---------------0--------0-----|
-----4-----------------4--|------------4--------------4--|
--2-----------------------|---------2--------------------|
--------------------------|--0---------------------------|


Do
E E E E E E E E E E E E E E E E
--------------0-----------|--------------3-----------|
-----------1-----1--------|-----------1-----1--------|
--------0-----------0-----|--------0-----------0-----|
-----2-----------------2--|-----2-----------------2--|
--3-----------------------|--3-----------------------|
--------------------------|--------------------------|


Si
E E E E E E E E E E E E H W
--------------2-----------|--------------2--------|--L----------------|
-----------4-----4--------|-----------4-----------|-------------------|
--------4-----------4-----|--------4--------------|-------------------|
-----4-----------------4--|-----4-----------------|-------------------|
--2-----------------------|--2--------------------|-------------------|
--------------------------|-----------------------|-------------------|


W W
-------------------|-------------------|-------------------|
-------------------|-------------------|-------------------|
-------------------|-------------------|--5----------------|
-------------------|--2----------------|--5----------------|
-------------------|--2----------------|--3----------------|
-------------------|--0----------------|-------------------|


\1
H Q Q W W
---------------------|-------------------|-------------------|
---------------------|-------------------|-------------------|
--4------------------|-------------------|-------------------|
--4--------5----4----|--2----------------|--2----------------|
--2--------5----4----|--2----------------|--2----------------|
-----------3----2----|--0----------------|--0----------------|


\1
W H Q Q W
-------------------|---------------------|-------------------|
-------------------|---------------------|-------------------|
--5----------------|--4------------------|-------------------|
--5----------------|--4--------5----4----|--2----------------|
--3----------------|--2--------5----4----|--2----------------|
-------------------|-----------3----2----|--0----------------|


W W W W
-------------------|-------------------|-------------------|-------------------|
-------------------|-------------------|-------------------|-------------------|
--2----------------|--4----------------|--4----------------|-------------------|
--2----------------|--4----------------|--4----------------|--2----------------|
--0----------------|--2----------------|--2----------------|--2----------------|
-------------------|-------------------|-------------------|--0----------------|


W W W W
-------------------|-------------------|-------------------|-------------------|
-------------------|-------------------|-------------------|-------------------|
--5----------------|--6----------------|--7----------------|-------------------|
--5----------------|--6----------------|--7----------------|-------------------|
--3----------------|--4----------------|--5----------------|-------------------|
-------------------|-------------------|-------------------|-------------------|


W W H Q Q
-------------------|-------------------|---------------------|
-------------------|-------------------|---------------------|
-------------------|--5----------------|--4------------------|
--2----------------|--5----------------|--4--------5----4----|
--2----------------|--3----------------|--2--------5----4----|
--0----------------|-------------------|-----------3----2----|


\1
W W W
-------------------|-------------------|-------------------|
-------------------|-------------------|-------------------|
-------------------|-------------------|--5----------------|
--2----------------|--2----------------|--5----------------|
--2----------------|--2----------------|--3----------------|
--0----------------|--0----------------|-------------------|


\1
H Q Q W W
---------------------|-------------------|-------------------|
---------------------|-------------------|-------------------|
--4------------------|-------------------|--2----------------|
--4--------5----4----|--2----------------|--2----------------|
--2--------5----4----|--2----------------|--0----------------|
-----------3----2----|--0----------------|-------------------|


W W W W
-------------------|-------------------|-------------------|-------------------|
-------------------|-------------------|-------------------|-------------------|
--4----------------|--4----------------|-------------------|--5----------------|
--4----------------|--4----------------|--2----------------|--5----------------|
--2----------------|--2----------------|--2----------------|--3----------------|
-------------------|-------------------|--0----------------|-------------------|


\1
W W W
-------------------|-------------------|---------------------|
-------------------|-------------------|---------------------|
--6----------------|--7----------------|---------------------|
--6----------------|--7----------------|---------------------|
--4----------------|--5----------------|--<>5----------------|
-------------------|-------------------|---------------------|


W W H H
-------------------|-------------------|--------------------|
-------------------|-------------------|--------------------|
--5----------------|--7----------------|--------------------|
--5----------------|--7----------------|--5--------4--------|
--3----------------|--5----------------|--5--------4--------|
-------------------|-------------------|--3--------2--------|


\1
W W W
-------------------|-------------------|-------------------|
-------------------|-------------------|-------------------|
-------------------|--5----------------|--7----------------|
--2----------------|--5----------------|--7----------------|
--2----------------|--3----------------|--5----------------|
--0----------------|-------------------|-------------------|


\1
H H W W
--------------------|-------------------|-------------------|
--------------------|-------------------|-------------------|
--------------------|-------------------|--5----------------|
--5--------4--------|--2----------------|--5----------------|
--5--------4--------|--2----------------|--3----------------|
--3--------2--------|--0----------------|-------------------|


W W W W
-------------------|-------------------|-------------------|-------------------|
-------------------|-------------------|-------------------|-------------------|
--7----------------|--4----------------|--9----------------|--5----------------|
--7----------------|--4----------------|--9----------------|--5----------------|
--5----------------|--2----------------|--7----------------|--3----------------|
-------------------|-------------------|-------------------|-------------------|


W W W W
-------------------|-------------------|-------------------|-------------------|
-------------------|-------------------|-------------------|-------------------|
--5----------------|--7----------------|--7----------------|--5----------------|
--5----------------|--7----------------|--7----------------|--5----------------|
--3----------------|--5----------------|--5----------------|--3----------------|
-------------------|-------------------|-------------------|-------------------|


\1
W H H W
-------------------|--------------------|-------------------|
-------------------|--------------------|-------------------|
--7----------------|--------------------|-------------------|
--7----------------|--5--------4--------|--2----------------|
--5----------------|--5--------4--------|--2----------------|
-------------------|--3--------2--------|--0----------------|


W W H H
-------------------|-------------------|--------------------|
-------------------|-------------------|--------------------|
--5----------------|--7----------------|--------------------|
--5----------------|--7----------------|--5--------4--------|
--3----------------|--5----------------|--5--------4--------|
-------------------|-------------------|--3--------2--------|


\1
W W W W
-------------------|-------------------|-------------------|-------------------|
-------------------|-------------------|-------------------|-------------------|
-------------------|--5----------------|--7----------------|--4----------------|
--2----------------|--5----------------|--7----------------|--4----------------|
--2----------------|--3----------------|--5----------------|--2----------------|
--0----------------|-------------------|-------------------|-------------------|


W W W W
-------------------|-------------------|-------------------|-------------------|
-------------------|-------------------|-------------------|-------------------|
--9----------------|--5----------------|--5----------------|--7----------------|
--9----------------|--5----------------|--5----------------|--7----------------|
--7----------------|--3----------------|--3----------------|--5----------------|
-------------------|-------------------|-------------------|-------------------|


W W W
-------------------|-------------------|-------------------|
-------------------|-------------------|-------------------|
--7----------------|--5----------------|--7----------------|
--7----------------|--5----------------|--7----------------|
--5----------------|--3----------------|--5----------------|
-------------------|-------------------|-------------------|


\1
H H W W
--------------------|-------------------|-------------------|
--------------------|-------------------|-------------------|
--------------------|-------------------|--5----------------|
--5--------4--------|--2----------------|--5----------------|
--5--------4--------|--2----------------|--3----------------|
--3--------2--------|--0----------------|-------------------|


\1
W H H W
-------------------|--------------------|-------------------|
-------------------|--------------------|-------------------|
--7----------------|--------------------|-------------------|
--7----------------|--5--------4--------|--2----------------|
--5----------------|--5--------4--------|--2----------------|
-------------------|--3--------2--------|--0----------------|


W W W W
-------------------|-------------------|-------------------|-------------------|
-------------------|-------------------|-------------------|-------------------|
--5----------------|--7----------------|--4----------------|--9----------------|
--5----------------|--7----------------|--4----------------|--9----------------|
--3----------------|--5----------------|--2----------------|--7----------------|
-------------------|-------------------|-------------------|-------------------|


W W W W
-------------------|-------------------|-------------------|-------------------|
-------------------|-------------------|-------------------|-------------------|
--5----------------|--5----------------|--7----------------|--7----------------|
--5----------------|--5----------------|--7----------------|--7----------------|
--3----------------|--3----------------|--5----------------|--5----------------|
-------------------|-------------------|-------------------|-------------------|


Calando...
W W H H
-------------------|-------------------|--------------------|
-------------------|-------------------|--------------------|
--5----------------|--7----------------|--------------------|
--5----------------|--7----------------|--5--------4--------|
--3----------------|--5----------------|--5--------4--------|
-------------------|-------------------|--3--------2--------|


\1
W W W
-------------------|-------------------|-------------------|
-------------------|-------------------|-------------------|
-------------------|--5----------------|--7----------------|
--2----------------|--5----------------|--7----------------|
--2----------------|--3----------------|--5----------------|
--0----------------|-------------------|-------------------|


\1
H H W W
--------------------|-------------------|-------------------|
--------------------|-------------------|-------------------|
--------------------|-------------------|--5----------------|
--5--------4--------|--2----------------|--5----------------|
--5--------4--------|--2----------------|--3----------------|
--3--------2--------|--0----------------|-------------------|


W W W W
-------------------|-------------------|-------------------|-------------------|
-------------------|-------------------|-------------------|-------------------|
--7----------------|--4----------------|--9----------------|--5----------------|
--7----------------|--4----------------|--9----------------|--5----------------|
--5----------------|--2----------------|--7----------------|--3----------------|
-------------------|-------------------|-------------------|-------------------|


W W W
-------------------|-------------------|-------------------||
-------------------|-------------------|-------------------||
--5----------------|--7----------------|--7----------------||
--5----------------|--7----------------|--7----------------||
--3----------------|--5----------------|--5----------------||
-------------------|-------------------|-------------------||




Duration Legend
---------------
W - whole
H - half
Q - quarter
E - 8th
S - 16th
T - 32nd
X - 64th
. - note dotted
|-n-| - n-tuplets


Tablature Legend
----------------
L - tied note
x - dead note
g - grace note
(n) - ghost note
> - accentuded note
NH - natural harmonic
AH - artificial harmonic
TH - tapped harmonic
SH - semi harmonic
PH - pitch harmonic
h - hammer on
p - pull off
b - bend
br - bendRelease
pb - preBend
pbr - preBendRelease
brb - bendReleaseBend
\n/ - tremolo bar dip
\n - tremolo bar dive
-/n - tremolo bar Release up
/n\ - tremolo bar inverted dip
/n - tremolo bar return
-\n - tremolo bar Release down
S - shift slide
s - legato slide
/ - slide into from below or out of upwards
\ - slide into from above or out of downwards
~ - vibrato
W - wide vibrato
tr - trill
TP - tremolo picking
T - tapping
S - slap
P - pop
< - fade in
^ - brush up
v - brush down