TABULATORS TO THE DEMON'S WHIP

Transcribed By : Dave Thornus
THANX TO MANOEL

intro
|--------------------------| |-----------|
|--------------------------| |-----------|
|--------------------------| |-----------|
|-------------4------------| x 4 |--4--------|
|----4---4------0-2-3------| |--4--------|
|--0-2-0-2--0--------------| |--2-\slide-|

riff 1
|--------------------------| |-----------|
|--------------------------| |-----------|
|--------------------------| |-----------|
|-------------4------------| x2 |--4--------|
|----4---4------0-2-3------| |--4--------|
|--0-2-0-2--0--------------| |--2-\slide-|

I don't know how often riff 1 is repeated, just listen to the song.

Riff 2
|-----------------------------------------|
|-----------------------------------------|
|-----------------------------------------|
|-4----7----4----2---2-------7----4----6--|
|-4----5-\--2-\--0---0-2-4---5-\--2-\--4--|
|-2-\------------------0-2-\--------------|

riff 3
|--------------------------------------------|
|--------------------------------------------|
|--------------------------------\high slide-|
|--------------------------------------------|
|--------------------------------------------|
|--22222222222222222222222222222-----22222---|
I don't know where you precicely have to slide
just try something until it sounds great.

Riff 4 ( the heavy stuff )
|--------------------------------------------------------|
|--------------------------------------------------------|
|--------------------------------------------------------|
|--------------------------------------------------------|
|--------------------------------------------------------|
|--222222222222222222222222222222222222222 till you drop-|

fill
(guitar 2)
feel the demon's whip demon's whip
|------|
|------|
|------|
|-777--|
|-555--|
|------|