TABULATORS TO THE GODS MADE HEAVY METAL

Tabbed By Dave "Thornus"
THANX TO MANOEL

And Yes, again no solo.

Riff 1
|----------------------------------------------------------||
|----------------------------------------------------------||
|----------------------------------------------------------||
|-------7---9---7--12-11--9-7-9-7-999----------------------||
|--10---5---7---5--10--9--7-5-7-5-777----------------------||
|---8------------------------------------------------------||

Fill 1
|----------------------------------------------------------||
|----------------------------------------------------------||
|----------------------------------------------------------||
|-------7---9---7--12-11-----------------------------------||
|--10---5---7---5--10--9--9--------------------------------||
|---8---------------------7--------------------------------||

Riff 2
|----------------------------------------------------------------||
|----------------------------------------------------------------||
|----------------------------------------------------------------||
|----------------------------------------------------------------||
|---------------------------------3333333333333333---------------||
|-00000000000000000000000000000000----------------00000000000000-||
P.M.............................................................

Fill 2
|----------------------||
|----------------------||
|----------------------||
|----------------------||
|---9999999999999999---||
|---7777777777777777---||

Chorus 1 Chorus 2
|--------------------------|| |------------------------||
|--------------------------|| |------------------------||
|--------------------------|| |------------------------||
|----------5----4----------|| |---9------5----4--------||
|---2------3----2----------|| |---7------3----2--------||
|---0----------------------|| |---0--------------------||

Fill 3
|---------------------------------------||
|---------------------------------------||
|---------------------------------------||
|---------------------------------------||
|---------------------------------------||
|--00000000000000000000000000000000-----||
P.M................................

Riff 3
|--------------------------------------------------------------------------||
|--------------------------------------------------------------------------||
|--------------------------------------------------------------------------||
|--------------------------------------------------------------------------||
|-333333335555555577777777777777773333333355555555-------------------------||
|-------------------------------------------------777777777777777777777777-||
P.M.......................................................................

Fill 4
|-----||
|-----||
|-11--||
|--9--||
|-----||
|-----||



Ending
|----------------------------------------------------------||
|-----Ne...ver..----gon..na----die.........----------------||
|----------------------------------------------------------||
|---2-----------2-----2---2------2-------------------------||
|---2-----------2-----2---2------2-------------------------||
|---0-----------0-----0---0------0-------------------------||


Song Structure

Riff 1 x3
Fill 1 x1
Riff 2 x2
Riff 1 x1
Fill 1 x1
Fill 2 x1
Chorus x2
Chorus2 x1
Chorus x1
Fill 3 x1
Riff 2 x2
Riff 1 x1
Fill 1 x1
Chorus x2
Chorus2 x1
Chorus x1
Solo
Riff 3 x1
Fill 2 x1
Solo
Riff 1 x1
Fill 1 met als laatste noot fill 4 x1
Chorus met solo
trash on the guitar
end x1
again trash on the Guitar