TABULATORS TO THE POWER

The Power

As recorded by MANOWAR on their album LOUDER THAN HELL



Intro:

Guitar 1 (or Bass)
e -------------------------------------------------------- |
B -------------------------------------------------------- |
G -------------------------------------------------------- |
D ----------------------7--------------------------------- |
A ---7---9-10---9-7------------5---7-8--7--5---9---------- |
E -------------------10----------------------------7------ |

Guitar 2:
e -------------------------------------------------------- |
B -------------------------------------------------------- |
G -------------------------------------------------------- |
D ---9---------------7---------7---------------9---------- |
A ---7---------------5---------5---------------7---------- |
E -------------------------------------------------------- |

Guitar 1 (or Bass)
e -------------------------------------------------------- |
B -------------------------------------------------------- |
G -------------------------------------------------------- |
D ----------------------7------------5-------------------- |
A ---7---9-10---9-7------------5---7---9-7---------------- |
E -------------------10--------------------8-7------------ |

Guitar 2:
e -------------------------------------------------------- |
B -------------------------------------------------------- |
G -------------------------------------------------------- |
D ---9---------------7---------7-----------5-4------------ |
A ---7---------------5---------5-----------3-2------------ |
E -------------------------------------------------------- |



Riff 1:

e ------------------------------------------------------- |
B ------------------------------------------------------- |
G ------------------------------------------------------- |
D ---7---------9--10-------------5---------3------------- |
A ---9---------11-12-------------7---------5------------- |
E ------------------------------------------------------- |

Riff 2:

e ------------------------------------------------------- |
B ------------------------------------------------------- |
G ------------------------------------------------------- |
D ---9---------11-12-------------7---------5--4---------- |
A ---7----------9-10-------------5---------3--2---------- |
E ------------------------------------------------------- |


Riff 3: (play reeeaaal fast !)

e -------------------------------------------------------- |
B -------------------------------------------------------- |
G -------------------------------------------------------- |
D ----------------12-11------------------7---------------- |
A ---777777777777-10--9-----777777777777-5---------------- |
E -------------------------------------------------------- |



Lyrics will follow, as the album is released ... (23. september in Europe)


Im not quite sure about the intro yet, maybe I will work it over later.




Intro


3 x Riff 1
1 x Riff 2
4 x Riff 3

3 x Riff 1
1 x Riff 2
4 x Riff 3

Bass & Guitar Solo

modified intro leads to the Guitar Solo

2 x Riff 2

Riff 3 until the end ...