TABULATORS TO THE SONS OF ODIN

Song : Sons Of Odin
Band : ManOwaR
Album : Gods of War (2007)
Tabbed by : The Jahlander 23/2/07

This is for guide purposes only
It is not an official Jah Nix Productions Release

If anybody is interested in the score for the orchestral
bit email me and I might attempt to MIDI it or sumthing

email : nick@jahnixproductions.com
web@ : www.jahnixproductions.com

DROPPED D TUNING

Intro

RIFF1 (or ostinato for technical people!)
B--------------|
G---x-x-x---3--|
D-5-x-x-x-5-3--|
A-5-x-x-x-5----|
D-5-x-x-x------| x3

G---------------------------|
D-3-------------------------|
A-3-3-3-3-3-3-----3-3-3-3-3-|
D-3-3-3-3-3-3-333-3-3-3-3-3-| x1 (I may have missed a F or 2)

RIFF2
G----------|---------|---------|----------|----------|----------|--------|
D-5--x-5-5-|-5---0-3-|-5---5-7-|-8--8-8-8-|-8--8-7-5-|-3--3-3-3-|-3--0-3-|
A-5--x-5-5-|-5---0-3-|-5---5-7-|-8--8-8-8-|-8--8-7-5-|-3--3-3-3-|-3--0-3-|
D-5--x-5-5-|-5---0-3-|-5---5-7-|-8--8-8-8-|-8--8-7-5-|-3--3-3-3-|-3--0-3-| x2
(once again forgive if ive missed strokes out - you should be listening anyway)

LET RING
G--------|-------|--------|
D-5------|-------|--------|
A-5------|-------|--------|
D-5------|-------|--------|

RIFF3 (Bass)
|G |G |F |F |
|G |G |F |F |

RIFF4
__G_______F_______Bb______F
D-5-----|-3-----|-8-----|-3-----|
A-5-----|-3-----|-8-----|-3-----|
D-5-----|-3-----|-8-----|-3-----|

__G_______F_______D_______D
D-5-----|-3-----|-0-----|-------|
A-5-----|-3-----|-0-----|-------|
D-5-----|-3-----|-0-----|-------|

__Bb______A_______G_______F
D-8-----|-7-----|-5-----|-3-----|
A-8-----|-7-----|-5-----|-3-----|
D-8-----|-7-----|-5-----|-3-----|

__Eb______G
D-1-----|-3-----|
A-1-----|-3-----|
D-1-----|-3-----|

RIFF 3a
pm---------------|
G-------------------3--|
D-------------------3--|
A----------------------|
D-5-5-5-5-5-5-5-5-5----| x2

pm------------------|
D----------------------|
A-3--------------------|
D-3--------------------| x2 (dont make me type all the 3's!)

SOLO CHORDS (Listen for the picking rythm)

__D______D______A______A
D-7----|-0----|-7----|-7----|
A-5----|-0----|-7----|-7----|
D-0----|-0----|-7----|-7----|

__D______D______A______A__A_B
D-7----|-0----|-7----|-7--7-9-|
A-5----|-0----|-7----|-7--7-9-|
D-0----|-0----|-7----|-7--7-9-|

__C_______C____C_B___G_______G__G_A
D-10---|-10---10-9-|-5-----|-5--5-7-|
A-10---|-10---10-9-|-5-----|-5--5-7-|
D-10---|-10---10-9-|-5-----|-5--5-7-|

__Bb______Bb__Bb_A___G________G
D-8-----|-8----8-7-|-3------|-3-----|
A-8-----|-8----8-7-|-3------|-3-----|
D-8-----|-8----8-7-|-3------|-3-----|

__Eb________Eb_________D
D-1-------|-1--------|-0------|------|
A-1-------|-1--------|-0------|------|
D-1-------|-1--------|-0------|------|

Tag (drag out the chords)

__Bb______A_______G_______F
D-8-----|-7-----|-5-----|-3-----|
A-8-----|-7-----|-5-----|-3-----|
D-8-----|-7-----|-5-----|-3-----|

__Eb______F_______G
D-1-----|-3-----|-5------|------|
A-1-----|-3-----|-5------|------|
D-1-----|-3-----|-5------|------|

OK NOW THE ORDER :-

RIFF1 x1
RIFF2 x2
RIFF3 (bass) x2
RIFF2 x2
RIFF3 (bass) x2
RIFF2 x2
RIFF4 x1
RIFF3a x2
SOLO CHORDS
RIFF3a x2
RIFF2 x2
RIFF4 x2
TAG

Time to do the solo......

email : nick@jahnixproductions.com
web@ : www.jahnixproductions.com