TABULATORS TO THOR (THE POWERHEAD)

Author/Artist: Manowar
Title: Thor (The Powerhead) - Guitar Solo
Album: Sign Of The Hammer
Transcribed by: Manoel Manowar
Email: manoelmanowar@geocities.com

If you have any correction, please send it to me by e-mail. Hail to
all the brothers of metal all over the world and at Brazil !!! Let's keep the
fight for true metal !!!

Visit my home-page at: "http://www.truemetal.org/manowarkill"


|-|--3--2--3--2--3--2--3--2--3--2--3--2--3--2--3--2--3--2--3--2--3--2---
|-|---------------------------------------------------------------------
|-|---------------------------------------------------------------------
|-|---------------------------------------------------------------------
|-|---------------------------------------------------------------------
|-|---------------------------------------------------------------------
1 60


3--2--3--2--3--2--3--2--3--2--|--7--6--7--6--7--6--7--6--7--6--7--6-----
------------------------------|-----------------------------------------
------------------------------|-----------------------------------------
------------------------------|-----------------------------------------
------------------------------|-----------------------------------------
------------------------------|-----------------------------------------
61


7--6--7--6--7--6--7--6--7--6--7--6--7--6--7--6--7--6--7--6--|--12-11----
------------------------------------------------------------|-----------
------------------------------------------------------------|-----------
------------------------------------------------------------|-----------
------------------------------------------------------------|-----------
------------------------------------------------------------|-----------
62


12-11-12-11-12-11-12-11-12-11-12-11-12-11-12-11-12-11-12-11-12-11-12----
------------------------------------------------------------------------
------------------------------------------------------------------------
------------------------------------------------------------------------
------------------------------------------------------------------------
------------------------------------------------------------------------



11-12-11-12-11-12-11-|--17-16-17-16-17-16-17-16-17-16-17-16-17-16-17----
---------------------|--------------------------------------------------
---------------------|--------------------------------------------------
---------------------|--------------------------------------------------
---------------------|--------------------------------------------------
---------------------|--------------------------------------------------
63

B2
16-17-16-17-16-17-16-17-16-17--------|--20----20----20-19-17------------
--------------------------------18---|-----------------------20-18-17---
-------------------------------------|----------------------------------
-------------------------------------|----------------------------------
-------------------------------------|----------------------------------
-------------------------------------|----------------------------------
64


------------------------------|-----------------------------------------
------------------------------|-----------------------------------------
19-17----16-------------------|-----------------------------------------
------19----19-17-15----------|-----------------14----------14----------
---------------------19-17-19-|--17-19-17-15-17----17-15-17----17-15----
------------------------------|-----------------------------------------
65


------------------------------------------------------------|-----------
------------------------------------------------------------|-----------
------------------------------------------------------------|-----------
---14-------14-15-14-12-14-15-14-12-14-15-14-12-14-15-14-12-|--12-14----
17----17-15-------------------------------------------------|-----------
------------------------------------------------------------|-----------
66


---------------10-12-10-8--10-8--7-----7--------------------------------
------10-12-13----------------------10----10-8--6--8--6--5-----5--3-----
10-12-------------------------------------------------------7-----------
------------------------------------------------------------------------
------------------------------------------------------------------------
------------------------------------------------------------------------



-----------------3--5--7--8--10-12-10-8--10-8--7-----7------------------
--------3--5--6-----------------------------------10----10-8--6--8--6---
5--4-5------------------------------------------------------------------
------------------------------------------------------------------------
------------------------------------------------------------------------
------------------------------------------------------------------------



------------------------------3--|--13-12-10----------------------------
5-----5--3-----------3--5--6-----|-----------13-12----------------------
---7--------5--4--5--------------|-----------------12-10-9-----9--10----
---------------------------------|--------------------------12----------
---------------------------------|--------------------------------------
---------------------------------|--------------------------------------
67

B2
---8--7--5-----------------------------------------12---|
8-----------8--------------3--3--3--3--5--5--5--5-------|
---------------5--5--5--5-------------------------------|
--------------------------------------------------------|
--------------------------------------------------------|
--------------------------------------------------------|