TABULATORS TO TODAY IS A GOOD DAY TO DIE


Guitar I
overkillz_msb@hotmail.com



Intro: Wind, Thunder & Rain FX
W W W
E||---------------------------------|-------------------|-------------------|
B||---------------------------------|-------------------|-------------------|
G||---------------------------------|-------------------|-------------------|
D||---------------------------------|-------------------|-------------------|
A||---------------------------------|-------------------|-------------------|
E||---------------------------------|-------------------|-------------------|


W W W W
-------------------|-------------------|-------------------|-------------------|
-------------------|-------------------|-------------------|-------------------|
-------------------|-------------------|-------------------|-------------------|
-------------------|-------------------|-------------------|-------------------|
-------------------|-------------------|-------------------|-------------------|
-------------------|-------------------|-------------------|-------------------|


W W W W
-------------------|-------------------|-------------------|-------------------|
-------------------|-------------------|-------------------|-------------------|
-------------------|-------------------|-------------------|-------------------|
-------------------|-------------------|-------------------|-------------------|
-------------------|-------------------|-------------------|-------------------|
-------------------|-------------------|-------------------|-------------------|


W W W W
-------------------|-------------------|-------------------|-------------------|
-------------------|-------------------|-------------------|-------------------|
-------------------|-------------------|-------------------|-------------------|
-------------------|-------------------|-------------------|-------------------|
-------------------|-------------------|-------------------|-------------------|
-------------------|-------------------|-------------------|-------------------|


W W W W
-------------------|-------------------|-------------------|-------------------|
-------------------|-------------------|-------------------|-------------------|
-------------------|-------------------|-------------------|-------------------|
-------------------|-------------------|-------------------|-------------------|
-------------------|-------------------|-------------------|-------------------|
-------------------|-------------------|-------------------|-------------------|


W W W W
-------------------|-------------------|-------------------|-------------------|
-------------------|-------------------|-------------------|-------------------|
-------------------|-------------------|-------------------|-------------------|
-------------------|-------------------|-------------------|-------------------|
-------------------|-------------------|-------------------|-------------------|
-------------------|-------------------|-------------------|-------------------|


W W W W
-------------------|-------------------|-------------------|-------------------|
-------------------|-------------------|-------------------|-------------------|
-------------------|-------------------|-------------------|-------------------|
-------------------|-------------------|-------------------|-------------------|
-------------------|-------------------|-------------------|-------------------|
-------------------|-------------------|-------------------|-------------------|


W W W W
-------------------|-------------------|-------------------|-------------------|
-------------------|-------------------|-------------------|-------------------|
-------------------|-------------------|-------------------|-------------------|
-------------------|-------------------|-------------------|-------------------|
-------------------|-------------------|-------------------|-------------------|
-------------------|-------------------|-------------------|-------------------|


W W W W
-------------------|-------------------|-------------------|-------------------|
-------------------|-------------------|-------------------|-------------------|
-------------------|-------------------|-------------------|-------------------|
-------------------|-------------------|-------------------|-------------------|
-------------------|-------------------|-------------------|-------------------|
-------------------|-------------------|-------------------|-------------------|


W W W W
-------------------|-------------------|-------------------|-------------------|
-------------------|-------------------|-------------------|-------------------|
-------------------|-------------------|-------------------|-------------------|
-------------------|-------------------|-------------------|-------------------|
-------------------|-------------------|-------------------|-------------------|
-------------------|-------------------|-------------------|-------------------|


E5 B5 E5
W W W W
-------------------|-------------------|-------------------|-------------------|
-------------------|-------------------|-------------------|-------------------|
-------------------|--9----------------|-------------------|--9----------------|
-------------------|--9----------------|--9----------------|--9----------------|
-------------------|--7----------------|--9----------------|--7----------------|
-------------------|-------------------|--7----------------|-------------------|


B5 G#5 C#5
W H Q Q Q E E H
-------------------|---------------------|----------------------|
-------------------|---------------------|----------------------|
-------------------|-----------5----8----|--6----L--8--9--------|
--9----------------|--6------------------|--6----L--------------|
--9----------------|--6--------3----6----|--4----L--6--7--------|
--7----------------|--4------------------|----------------------|


B5 E5 G#5
Q E. S Q Q W H Q Q
-------------------------|-------------------|---------------------|
-------------------------|-------------------|---------------------|
--4----L-----------------|-------------------|-----------5----8----|
--4----L-----------------|--2----------------|--6------------------|
--2----L-----------------|--2----------------|--6--------3----6----|
-----------2-4br----2----|--0----------------|--4------------------|


C#5 B5 E5
Q E E H Q E. S Q Q W
----------------------|---------------------------|-------------------|
----------------------|---------------------------|-------------------|
--6----L--8--9--------|--4----L-------------------|-------------------|
--6----L--------------|--4----L-------------------|--2----------------|
--4----L--6--7--------|--2----L-------------------|--2----------------|
----------------------|-----------2-<>4br----2----|--0----------------|


C#m
\2
W H. E S S Q H E E
-------------------|--------------------------|-----------------------|
-------------------|--5------------L--(x)-(x)-|--5\-------------------|
-------------------|--6------------L--(x)-(x)-|--6\-------------------|
-------------------|--6------------L--(x)-(x)-|--6\----------------x--|
-------------------|--4------------L--(x)-(x)-|--4\----------------4--|
--0----------------|--------------------------|-----------------------|


F#m
^ \1/
E E H E E Q Q S S S S Q H H
-------------------------|---------------------------|--------------------|
-------------------------|---------------------------|--2--------L--------|
--<>6--------------------|---------------------------|--2--------L--------|
-------------------------|---------------------------|--4--------L--------|
-------------------------|---------------------------|--4-----------------|
-------------------x--x--|-------x----x-x-(x)-x------|--2--------2--------|


C#m/G#
\1/ ^
W H. E S S Q Q. Q.
---------------------|--------------------------|----------------------|
--<>4----------------|--5------------L--(x)-(x)-|--5\------------------|
--<>4----------------|--6------------L--(x)-(x)-|--6\------------------|
--<>4----------------|--6------------L--(x)-(x)-|--6\------------------|
---------------------|--4------------L--(x)-(x)-|--4\------------------|
---------------------|--4------------L----------|---------------x------|


\2 \4
Q H Q W E E H.
-----------------------|-------------------|---------------------|
-----------------------|-------------------|---------------------|
-----------------------|-------------------|---------------------|
-----------------------|-------------------|---------------------|
-----------------------|-------------------|---------------------|
--0----(0)-------------|-------------------|--x--x---------------|


F#m
^ \1/ \0/
W H H W
-------------------|--------------------|---------------------|
-------------------|--2--------L--------|--<>4----------------|
-------------------|--2--------L--------|--<>4----------------|
-------------------|--4--------L--------|--<>4----------------|
-------------------|--4-----------------|---------------------|
-------------------|--2--------2--------|---------------------|


C#m/G# C#m E5 E5
^
H. E S S Q Q S E. S E. W
--------------------------|----------------------------|-------------------|
--5------------L--(x)-(x)-|--5\------------------------|-------------------|
--6------------L--(x)-(x)-|--6\---------x--9\---x-9\---|--9----------------|
--6------------L--(x)-(x)-|--6\-----------(9)----------|--9----------------|
--4------------L--(x)-(x)-|--4\---------x--7\---x-7\---|--7----------------|
--4------------L----------|----------------------------|-------------------|


B5 E5 B5
W W W
-------------------|-------------------|-------------------|
-------------------|-------------------|-------------------|
-------------------|--9----------------|-------------------|
--9----------------|--9----------------|--9----------------|
--9----------------|--7----------------|--9----------------|
--7----------------|-------------------|--7----------------|


G#5 C#5 B5
H Q Q Q E E H Q E. S Q Q
---------------------|----------------------|-------------------------|
---------------------|----------------------|-------------------------|
-----------5----8----|--6----L--8--9--------|--4----L-----------------|
--6------------------|--6----L--------------|--4----L-----------------|
--6--------3----6----|--4----L--6--7--------|--2----L-----------------|
--4------------------|----------------------|-----------2-4br----2----|


E5 G#5 C#5
W H Q Q Q E E H
-------------------|---------------------|----------------------|
-------------------|---------------------|----------------------|
-------------------|-----------5----8----|--6----L--8--9--------|
--2----------------|--6------------------|--6----L--------------|
--2----------------|--6--------3----6----|--4----L--6--7--------|
--0----------------|--4------------------|----------------------|


B5 E5
\2
Q E. S Q Q W W
---------------------------|-------------------|-------------------|
---------------------------|-------------------|-------------------|
--4----L-------------------|-------------------|-------------------|
--4----L-------------------|--2----------------|-------------------|
--2----L-------------------|--2----------------|-------------------|
-----------2-<>4br----2----|--0----------------|--0----------------|


W W W W
-------------------|-------------------|-------------------|-------------------|
-------------------|-------------------|-------------------|-------------------|
-------------------|-------------------|-------------------|-------------------|
-------------------|-------------------|-------------------|-------------------|
-------------------|-------------------|-------------------|-------------------|
-------------------|-------------------|-------------------|-------------------|


W W W W
-------------------|-------------------|-------------------|-------------------|
-------------------|-------------------|-------------------|-------------------|
-------------------|-------------------|-------------------|-------------------|
-------------------|-------------------|-------------------|-------------------|
-------------------|-------------------|-------------------|-------------------|
-------------------|-------------------|-------------------|-------------------|


W W W W
-------------------|-------------------|-------------------|-------------------|
-------------------|-------------------|-------------------|-------------------|
-------------------|-------------------|-------------------|-------------------|
-------------------|-------------------|-------------------|-------------------|
-------------------|-------------------|-------------------|-------------------|
-------------------|-------------------|-------------------|-------------------|


W W W W
-------------------|-------------------|-------------------|-------------------|
-------------------|-------------------|-------------------|-------------------|
-------------------|-------------------|-------------------|-------------------|
-------------------|-------------------|-------------------|-------------------|
-------------------|-------------------|-------------------|-------------------|
-------------------|-------------------|-------------------|-------------------|


W W W W
-------------------|-------------------|-------------------|-------------------|
-------------------|-------------------|-------------------|-------------------|
-------------------|-------------------|-------------------|-------------------|
-------------------|-------------------|-------------------|-------------------|
-------------------|-------------------|-------------------|-------------------|
-------------------|-------------------|-------------------|-------------------|


W W W W
-------------------|-------------------|-------------------|-------------------|
-------------------|-------------------|-------------------|-------------------|
-------------------|-------------------|-------------------|-------------------|
-------------------|-------------------|-------------------|-------------------|
-------------------|-------------------|-------------------|-------------------|
-------------------|-------------------|-------------------|-------------------|


E5 B5 E5 B5
W W W W
-------------------|-------------------|-------------------|-------------------|
-------------------|-------------------|-------------------|-------------------|
--9----------------|-------------------|--9----------------|-------------------|
--9----------------|--9----------------|--9----------------|--9----------------|
--7----------------|--9----------------|--7----------------|--9----------------|
-------------------|--7----------------|-------------------|--7----------------|


G#5 C#5 B5
H Q Q Q E E H Q E. S Q Q
---------------------|----------------------|-------------------------|
---------------------|----------------------|-------------------------|
-----------5----8----|--6----L--8--9--------|--4----L-----------------|
--6------------------|--6----L--------------|--4----L-----------------|
--6--------3----6----|--4----L--6--7--------|--2----L-----------------|
--4------------------|----------------------|-----------2-4br----2----|


E5 G#5 C#5
W H Q Q Q E E H
-------------------|---------------------|----------------------|
-------------------|---------------------|----------------------|
-------------------|-----------5----8----|--6----L--8--9--------|
--2----------------|--6------------------|--6----L--------------|
--2----------------|--6--------3----6----|--4----L--6--7--------|
--0----------------|--4------------------|----------------------|


W W W W
-------------------|-------------------|-------------------|-------------------|
-------------------|-------------------|-------------------|-------------------|
--4----------------|-------------------|-------------------|-------------------|
--4----------------|-------------------|-------------------|-------------------|
--2----------------|-------------------|-------------------|-------------------|
-------------------|-------------------|-------------------|-------------------|


W W W W
-------------------|-------------------|-------------------|-------------------|
-------------------|-------------------|-------------------|-------------------|
-------------------|-------------------|-------------------|-------------------|
-------------------|-------------------|-------------------|-------------------|
-------------------|-------------------|-------------------|-------------------|
-------------------|-------------------|-------------------|-------------------|


W W W W
-------------------|-------------------|-------------------|-------------------|
-------------------|-------------------|-------------------|-------------------|
-------------------|-------------------|-------------------|-------------------|
-------------------|-------------------|-------------------|-------------------|
-------------------|-------------------|-------------------|-------------------|
-------------------|-------------------|-------------------|-------------------|


W W W W
-------------------|-------------------|-------------------|-------------------|
-------------------|-------------------|-------------------|-------------------|
-------------------|-------------------|-------------------|-------------------|
-------------------|-------------------|-------------------|-------------------|
-------------------|-------------------|-------------------|-------------------|
-------------------|-------------------|-------------------|-------------------|


E5
W W Q Q Q E E
-------------------|-------------------|------------------------|
-------------------|-------------------|------------/8----L--7--|
-------------------|-------------------|-------4----------------|
-------------------|-------------------|--2---------/5----L--4--|
-------------------|-------------------|--2----2----------------|
-------------------|-------------------|--0---------------------|


C5
\1/ tr
H H Q Q Q E E H Q Q
--------------------|------------------------|--------------------------|
--5-----------------|------------/8----L--7--|--12--------10------------|
--------------------|--5----5----------------|--------------------------|
--2-----------------|--5---------/5----L--4--|---9---------7----7(9)----|
--------------------|--3----3----------------|--------------------------|
-----------0--------|------------------------|--------------------------|


E5 C5
\1/
Q Q Q E E H H Q Q Q E E
------------------------|--------------------|------------------------|
------------/8----L--7--|--5-----------------|------------/8----L--7--|
-------4----------------|--------------------|--5----5----------------|
--2---------/5----L--4--|--2-----------------|--5---------/5----L--4--|
--2----2----------------|--------------------|--3----3----------------|
--0---------------------|-----------0--------|------------------------|


E5
tr
H H Q Q Q E E E E Q E E Q
--------------------------|------------------------|--------------------------|
--12--------10(12)--------|------------/8----L--7--|--5--7--8----8--10--12----|
--------------------------|-------4----------------|--------------------------|
---9---------7(9)---------|--2---------/5----L--4--|--2--4--5----5---7---9----|
--------------------------|--2----2----------------|--------------------------|
--------------------------|--0---------------------|--------------------------|


C5 E5
Q Q Q E E E E Q E E Q Q Q Q E E
------------------------|--------------------------|------------------------|
------------/8----L--7--|--5--7--8----8--10--12----|------------/8----L--7--|
--5----5----------------|--------------------------|-------4----------------|
--5---------/5----L--4--|--2--4--5----5---7---9----|--2---------/5----L--4--|
--3----3----------------|--------------------------|--2----2----------------|
------------------------|--------------------------|--0---------------------|


C5
E E Q E E Q Q Q Q E E E E Q E E Q
--------------------------|------------------------|--------------------------|
--5--7--8----8--10--12----|------------/8----L--7--|--5--7--8----8--10--12----|
--------------------------|--5----5----------------|--------------------------|
--2--4--5----5---7---9----|--5---------/5----L--4--|--2--4--5----5---7---9----|
--------------------------|--3----3----------------|--------------------------|
--------------------------|------------------------|--------------------------|


E5
W W W
---------------------|-------------------|-------------------|
---------------------|-------------------|-------------------|
---------------------|-------------------|-------------------|
--(2)----------------|--L----------------|-------------------|
--(2)----------------|--L----------------|--L----------------|
---0-----------------|--L----------------|--L----------------|


W W W W
-------------------|-------------------|-------------------|-------------------|
-------------------|-------------------|-------------------|-------------------|
-------------------|-------------------|-------------------|-------------------|
-------------------|-------------------|-------------------|-------------------|
-------------------|-------------------|-------------------|-------------------|
--L----------------|-------------------|-------------------|-------------------|


W W W W
-------------------|-------------------|-------------------|-------------------|
-------------------|-------------------|-------------------|-------------------|
-------------------|-------------------|-------------------|-------------------|
-------------------|-------------------|-------------------|-------------------|
-------------------|-------------------|-------------------|-------------------|
-------------------|-------------------|-------------------|-------------------|


W W W W
-------------------|-------------------|-------------------|-------------------|
-------------------|-------------------|-------------------|-------------------|
-------------------|-------------------|-------------------|-------------------|
-------------------|-------------------|-------------------|-------------------|
-------------------|-------------------|-------------------|-------------------|
-------------------|-------------------|-------------------|-------------------|


W W W W
-------------------|-------------------|-------------------|-------------------|
-------------------|-------------------|-------------------|-------------------|
-------------------|-------------------|-------------------|-------------------|
-------------------|-------------------|-------------------|-------------------|
-------------------|-------------------|-------------------|-------------------|
-------------------|-------------------|-------------------|-------------------|


W W W
-------------------|-------------------|-------------------|
-------------------|-------------------|-------------------|
-------------------|-------------------|-------------------|
-------------------|-------------------|-------------------|
-------------------|-------------------|-------------------|
-------------------|-------------------|-------------------|


W
-------------------||
-------------------||
-------------------||
-------------------||
-------------------||
-------------------||




Duration Legend
---------------
W - whole
H - half
Q - quarter
E - 8th
S - 16th
T - 32nd
X - 64th
. - note dotted
|-n-| - n-tuplets


Tablature Legend
----------------
L - tied note
x - dead note
g - grace note
(n) - ghost note
> - accentuded note
NH - natural harmonic
AH - artificial harmonic
TH - tapped harmonic
SH - semi harmonic
PH - pitch harmonic
h - hammer on
p - pull off
b - bend
br - bendRelease
pb - preBend
pbr - preBendRelease
brb - bendReleaseBend
\n/ - tremolo bar dip
\n - tremolo bar dive
-/n - tremolo bar Release up
/n\ - tremolo bar inverted dip
/n - tremolo bar return
-\n - tremolo bar Release down
S - shift slide
s - legato slide
/ - slide into from below or out of upwards
\ - slide into from above or out of downwards
~ - vibrato
W - wide vibrato
tr - trill
TP - tremolo picking
T - tapping
S - slap
P - pop
< - fade in
^ - brush up
v - brush down


Guitar II
overkillz_msb@hotmail.com



Intro:
W W W
E||-------------------|-------------------|-------------------|
B||-------------------|-------------------|-------------------|
G||-------------------|-------------------|-------------------|
D||-------------------|-------------------|-------------------|
A||-------------------|-------------------|-------------------|
E||-------------------|-------------------|-------------------|


W W W W
-------------------|-------------------|-------------------|-------------------|
-------------------|-------------------|-------------------|-------------------|
-------------------|-------------------|-------------------|-------------------|
-------------------|-------------------|-------------------|-------------------|
-------------------|-------------------|-------------------|-------------------|
-------------------|-------------------|-------------------|-------------------|


Drums:
W W W W
-------------------|-------------------|-------------------|-------------------|
-------------------|-------------------|-------------------|-------------------|
-------------------|-------------------|-------------------|-------------------|
-------------------|-------------------|-------------------|-------------------|
-------------------|-------------------|-------------------|-------------------|
-------------------|-------------------|-------------------|-------------------|


Part A:
W W W W
-------------------|-------------------|-------------------|-------------------|
-------------------|-------------------|-------------------|-------------------|
-------------------|-------------------|-------------------|-------------------|
-------------------|-------------------|-------------------|-------------------|
-------------------|-------------------|-------------------|-------------------|
-------------------|-------------------|-------------------|-------------------|


W W W W
-------------------|-------------------|-------------------|-------------------|
-------------------|-------------------|-------------------|-------------------|
-------------------|-------------------|-------------------|-------------------|
-------------------|-------------------|-------------------|-------------------|
-------------------|-------------------|-------------------|-------------------|
-------------------|-------------------|-------------------|-------------------|


W W W W
-------------------|-------------------|-------------------|-------------------|
-------------------|-------------------|-------------------|-------------------|
-------------------|-------------------|-------------------|-------------------|
-------------------|-------------------|-------------------|-------------------|
-------------------|-------------------|-------------------|-------------------|
-------------------|-------------------|-------------------|-------------------|


W W W W
-------------------|-------------------|-------------------|-------------------|
-------------------|-------------------|-------------------|-------------------|
-------------------|-------------------|-------------------|-------------------|
-------------------|-------------------|-------------------|-------------------|
-------------------|-------------------|-------------------|-------------------|
-------------------|-------------------|-------------------|-------------------|


W W W W
-------------------|-------------------|-------------------|-------------------|
-------------------|-------------------|-------------------|-------------------|
-------------------|-------------------|-------------------|-------------------|
-------------------|-------------------|-------------------|-------------------|
-------------------|-------------------|-------------------|-------------------|
-------------------|-------------------|-------------------|-------------------|


W W W W
-------------------|-------------------|-------------------|-------------------|
-------------------|-------------------|-------------------|-------------------|
-------------------|-------------------|-------------------|-------------------|
-------------------|-------------------|-------------------|-------------------|
-------------------|-------------------|-------------------|-------------------|
-------------------|-------------------|-------------------|-------------------|


W W W W
-------------------|-------------------|-------------------|-------------------|
-------------------|-------------------|-------------------|-------------------|
-------------------|-------------------|-------------------|-------------------|
-------------------|-------------------|-------------------|-------------------|
-------------------|-------------------|-------------------|-------------------|
-------------------|-------------------|-------------------|-------------------|


Part B:
W W W W
-------------------|-------------------|-------------------|-------------------|
-------------------|-------------------|-------------------|-------------------|
-------------------|--9----------------|-------------------|--9----------------|
-------------------|--9----------------|--9----------------|--9----------------|
-------------------|--7----------------|--9----------------|--7----------------|
-------------------|-------------------|--7----------------|-------------------|


W H Q Q Q E E H
-------------------|---------------------|----------------------|
-------------------|---------------------|----------------------|
-------------------|-----------5----8----|--6----L--8--9--------|
--9----------------|--6------------------|--6----L--------------|
--9----------------|--6--------3----6----|--4----L--6--7--------|
--7----------------|--4------------------|----------------------|


Q E. S Q Q W H Q Q
-------------------------|-------------------|---------------------|
-------------------------|-------------------|---------------------|
--4----L-----------------|-------------------|-----------5----8----|
--4----L-----------------|--2----------------|--6------------------|
--2----L-----------------|--2----------------|--6--------3----6----|
-----------2-4br----2----|--0----------------|--4------------------|


Q E E H Q E. S Q Q W
----------------------|---------------------------|-------------------|
----------------------|---------------------------|-------------------|
--6----L--8--9--------|--4----L-------------------|-------------------|
--6----L--------------|--4----L-------------------|--2----------------|
--4----L--6--7--------|--2----L-------------------|--2----------------|
----------------------|-----------2-<>4br----2----|--0----------------|


Part C:
\2
W H. E S S Q H E E
-------------------|--------------------------|-----------------------|
-------------------|--5------------L--(x)-(x)-|--5\-------------------|
-------------------|--6------------L--(x)-(x)-|--6\-------------------|
-------------------|--6------------L--(x)-(x)-|--6\----------------x--|
-------------------|--4------------L--(x)-(x)-|--4\----------------4--|
--0----------------|--------------------------|-----------------------|


^ \1/
Q H E E Q Q S S S S Q H H
------------------------|---------------------------|--------------------|
------------------------|---------------------------|--2--------L--------|
--<>6-------------------|---------------------------|--2--------L--------|
------------------------|---------------------------|--4--------L--------|
------------------------|---------------------------|--4-----------------|
------------------x--x--|-------x----x-x-(x)-x------|--2--------2--------|


\1/ ^
W H. E S S Q Q. Q.
---------------------|--------------------------|----------------------|
--<>4----------------|--5------------L--(x)-(x)-|--5\------------------|
--<>4----------------|--6------------L--(x)-(x)-|--6\------------------|
--<>4----------------|--6------------L--(x)-(x)-|--6\------------------|
---------------------|--4------------L--(x)-(x)-|--4\------------------|
---------------------|--4------------L----------|---------------x------|


\2 \4
Q H Q W E E H.
-----------------------|-------------------|---------------------|
-----------------------|-------------------|---------------------|
-----------------------|-------------------|---------------------|
-----------------------|-------------------|---------------------|
-----------------------|-------------------|---------------------|
--0----(0)-------------|-------------------|--x--x---------------|


^ \1/ \0/
W H H W
-------------------|--------------------|---------------------|
-------------------|--2--------L--------|--<>4----------------|
-------------------|--2--------L--------|--<>4----------------|
-------------------|--4--------L--------|--<>4----------------|
-------------------|--4-----------------|---------------------|
-------------------|--2--------2--------|---------------------|


Part B:
^
H. E S S Q Q S E. S E. W
--------------------------|----------------------------|-------------------|
--5------------L--(x)-(x)-|--5\------------------------|-------------------|
--6------------L--(x)-(x)-|--6\---------x--9\---x-9\---|--9----------------|
--6------------L--(x)-(x)-|--6\-----------(9)----------|--9----------------|
--4------------L--(x)-(x)-|--4\---------x--7\---x-7\---|--7----------------|
--4------------L----------|----------------------------|-------------------|


W W W
-------------------|-------------------|-------------------|
-------------------|-------------------|-------------------|
-------------------|--9----------------|-------------------|
--9----------------|--9----------------|--9----------------|
--9----------------|--7----------------|--9----------------|
--7----------------|-------------------|--7----------------|


H Q Q Q E E H Q E. S Q Q
---------------------|----------------------|-------------------------|
---------------------|----------------------|-------------------------|
-----------5----8----|--6----L--8--9--------|--4----L-----------------|
--6------------------|--6----L--------------|--4----L-----------------|
--6--------3----6----|--4----L--6--7--------|--2----L-----------------|
--4------------------|----------------------|-----------2-4br----2----|


W H Q Q Q E E H
-------------------|---------------------|----------------------|
-------------------|---------------------|----------------------|
-------------------|-----------5----8----|--6----L--8--9--------|
--2----------------|--6------------------|--6----L--------------|
--2----------------|--6--------3----6----|--4----L--6--7--------|
--0----------------|--4------------------|----------------------|


\2
Q E. S Q Q W W
---------------------------|-------------------|-------------------|
---------------------------|-------------------|-------------------|
--4----L-------------------|-------------------|-------------------|
--4----L-------------------|--2----------------|-------------------|
--2----L-------------------|--2----------------|-------------------|
-----------2-<>4br----2----|--0----------------|--0----------------|


Solo 1:
W W W W
-------------------|-------------------|-------------------|-------------------|
-------------------|-------------------|-------------------|-------------------|
-------------------|-------------------|-------------------|-------------------|
-------------------|-------------------|-------------------|-------------------|
-------------------|-------------------|-------------------|-------------------|
-------------------|-------------------|-------------------|-------------------|


W W W W
-------------------|-------------------|-------------------|-------------------|
-------------------|-------------------|-------------------|-------------------|
-------------------|-------------------|-------------------|-------------------|
-------------------|-------------------|-------------------|-------------------|
-------------------|-------------------|-------------------|-------------------|
-------------------|-------------------|-------------------|-------------------|


W W W W
-------------------|-------------------|-------------------|-------------------|
-------------------|-------------------|-------------------|-------------------|
-------------------|-------------------|-------------------|-------------------|
-------------------|-------------------|-------------------|-------------------|
-------------------|-------------------|-------------------|-------------------|
-------------------|-------------------|-------------------|-------------------|


W W W W
-------------------|-------------------|-------------------|-------------------|
-------------------|-------------------|-------------------|-------------------|
-------------------|-------------------|-------------------|-------------------|
-------------------|-------------------|-------------------|-------------------|
-------------------|-------------------|-------------------|-------------------|
-------------------|-------------------|-------------------|-------------------|


W W W W
-------------------|-------------------|-------------------|-------------------|
-------------------|-------------------|-------------------|-------------------|
-------------------|-------------------|-------------------|-------------------|
-------------------|-------------------|-------------------|-------------------|
-------------------|-------------------|-------------------|-------------------|
-------------------|-------------------|-------------------|-------------------|


W W W W
-------------------|-------------------|-------------------|-------------------|
-------------------|-------------------|-------------------|-------------------|
-------------------|-------------------|-------------------|-------------------|
-------------------|-------------------|-------------------|-------------------|
-------------------|-------------------|-------------------|-------------------|
-------------------|-------------------|-------------------|-------------------|


W W W W
-------------------|-------------------|-------------------|-------------------|
-------------------|-------------------|-------------------|-------------------|
--9----------------|-------------------|--9----------------|-------------------|
--9----------------|--9----------------|--9----------------|--9----------------|
--7----------------|--9----------------|--7----------------|--9----------------|
-------------------|--7----------------|-------------------|--7----------------|


H Q Q Q E E H Q E. S Q Q
---------------------|----------------------|-------------------------|
---------------------|----------------------|-------------------------|
-----------5----8----|--6----L--8--9--------|--4----L-----------------|
--6------------------|--6----L--------------|--4----L-----------------|
--6--------3----6----|--4----L--6--7--------|--2----L-----------------|
--4------------------|----------------------|-----------2-4br----2----|


W H Q Q Q E E H
-------------------|---------------------|----------------------|
-------------------|---------------------|----------------------|
-------------------|-----------5----8----|--6----L--8--9--------|
--2----------------|--6------------------|--6----L--------------|
--2----------------|--6--------3----6----|--4----L--6--7--------|
--0----------------|--4------------------|----------------------|


W W W W
-------------------|-------------------|-------------------|-------------------|
-------------------|-------------------|-------------------|-------------------|
--4----------------|-------------------|-------------------|-------------------|
--4----------------|-------------------|-------------------|-------------------|
--2----------------|-------------------|-------------------|-------------------|
-------------------|-------------------|-------------------|-------------------|


W W W W
-------------------|-------------------|-------------------|-------------------|
-------------------|-------------------|-------------------|-------------------|
-------------------|-------------------|-------------------|-------------------|
-------------------|-------------------|-------------------|-------------------|
-------------------|-------------------|-------------------|-------------------|
-------------------|-------------------|-------------------|-------------------|


W W W W
-------------------|-------------------|-------------------|-------------------|
-------------------|-------------------|-------------------|-------------------|
-------------------|-------------------|-------------------|-------------------|
-------------------|-------------------|-------------------|-------------------|
-------------------|-------------------|-------------------|-------------------|
-------------------|-------------------|-------------------|-------------------|


W W W W
-------------------|-------------------|-------------------|-------------------|
-------------------|-------------------|-------------------|-------------------|
-------------------|-------------------|-------------------|-------------------|
-------------------|-------------------|-------------------|-------------------|
-------------------|-------------------|-------------------|-------------------|
-------------------|-------------------|-------------------|-------------------|


W W W W
-------------------|-------------------|-------------------|-------------------|
-------------------|-------------------|-------------------|-------------------|
-------------------|-------------------|-------------------|-------------------|
-------------------|-------------------|--2----------------|--L----------------|
-------------------|-------------------|--2----------------|--L----------------|
-------------------|-------------------|--0----------------|--L----------------|


W H Q S S E W
-------------------|------------------------|-------------------|
-------------------|------------------------|-------------------|
--5----------------|--L--------7----7-7-7\--|-------------------|
--5----------------|--L--------7----7-7-7\--|--2----------------|
--3----------------|--L--------5----5-5-5\--|--2----------------|
--3----------------|--L---------------------|--0----------------|


W W H Q S S E
-------------------|-------------------|------------------------|
-------------------|-------------------|------------------------|
-------------------|--5----------------|--L--------7----7-7-7\--|
--L----------------|--5----------------|--L--------7----7-7-7\--|
--L----------------|--3----------------|--L--------5----5-5-5\--|
--L----------------|--3----------------|--L---------------------|


W W W W
-------------------|-------------------|-------------------|-------------------|
-------------------|-------------------|-------------------|-------------------|
-------------------|-------------------|--5----------------|--L----------------|
--2----------------|--L----------------|--5----------------|--L----------------|
--2----------------|--L----------------|--3----------------|--L----------------|
--0----------------|--L----------------|--3----------------|--L----------------|


W W W W
-------------------|-------------------|-------------------|-------------------|
-------------------|-------------------|-------------------|-------------------|
-------------------|-------------------|--5----------------|--L----------------|
--2----------------|--L----------------|--5----------------|--L----------------|
--2----------------|--L----------------|--3----------------|--L----------------|
--0----------------|--L----------------|--3----------------|--L----------------|


\2 W \2
W W W W
-------------------|-------------------|-------------------|-------------------|
-------------------|-------------------|-------------------|-------------------|
-------------------|-------------------|-------------------|-------------------|
-------------------|-------------------|-------------------|-------------------|
-------------------|-------------------|-------------------|-------------------|
--0----------------|--0----------------|--0----------------|-------------------|


W W W W
-------------------|-------------------|-------------------|-------------------|
-------------------|-------------------|-------------------|-------------------|
-------------------|-------------------|-------------------|-------------------|
-------------------|-------------------|-------------------|-------------------|
-------------------|-------------------|-------------------|-------------------|
-------------------|-------------------|-------------------|-------------------|


W W W W
-------------------|-------------------|-------------------|-------------------|
-------------------|-------------------|-------------------|-------------------|
-------------------|-------------------|-------------------|-------------------|
-------------------|-------------------|-------------------|-------------------|
-------------------|-------------------|-------------------|-------------------|
-------------------|-------------------|-------------------|-------------------|


W W W W
-------------------|-------------------|-------------------|-------------------|
-------------------|-------------------|-------------------|-------------------|
-------------------|-------------------|-------------------|-------------------|
-------------------|-------------------|-------------------|-------------------|
-------------------|-------------------|-------------------|-------------------|
-------------------|-------------------|-------------------|-------------------|


W W W W
-------------------|-------------------|-------------------|-------------------|
-------------------|-------------------|-------------------|-------------------|
-------------------|-------------------|-------------------|-------------------|
-------------------|-------------------|-------------------|-------------------|
-------------------|-------------------|-------------------|-------------------|
-------------------|-------------------|-------------------|-------------------|


W W W
-------------------|-------------------|-------------------||
-------------------|-------------------|-------------------||
-------------------|-------------------|-------------------||
-------------------|-------------------|-------------------||
-------------------|-------------------|-------------------||
-------------------|-------------------|-------------------||




Duration Legend
---------------
W - whole
H - half
Q - quarter
E - 8th
S - 16th
T - 32nd
X - 64th
. - note dotted
|-n-| - n-tuplets


Tablature Legend
----------------
L - tied note
x - dead note
g - grace note
(n) - ghost note
> - accentuded note
NH - natural harmonic
AH - artificial harmonic
TH - tapped harmonic
SH - semi harmonic
PH - pitch harmonic
h - hammer on
p - pull off
b - bend
br - bendRelease
pb - preBend
pbr - preBendRelease
brb - bendReleaseBend
\n/ - tremolo bar dip
\n - tremolo bar dive
-/n - tremolo bar Release up
/n\ - tremolo bar inverted dip
/n - tremolo bar return
-\n - tremolo bar Release down
S - shift slide
s - legato slide
/ - slide into from below or out of upwards
\ - slide into from above or out of downwards
~ - vibrato
W - wide vibrato
tr - trill
TP - tremolo picking
T - tapping
S - slap
P - pop
< - fade in
^ - brush up
v - brush down